Табулатура Red Hot Chili Peppers | Catholic School Girls Rule гитара табулатуры уроки тексты песен Red Hot Chili Peppers текст lyrics песня аккорды песни ноты нота электрогитара струна  
   А Б В Г Д Е Ж З И К Л М Н О П Р С Т У Ф Х Ч Ш Ы Э Ю Я       Разные песни
1-9 A B C D E F G H I J K L M N O P Q R S T U V W Y Z      Все исполнители in english

    



группа Red Hot Chili Peppers, Табулатура песни Catholic School Girls Rule

Группа: Red Hot Chili Peppers - другие аккорды (395),   о группе (3 статей),   диски (15),   фотографии (113)
Табулатура песни: Catholic School Girls Rule
Просмотров: 1647
Подобрал: Whipper (indiespace@narod.ru)




    
Chorus
1| --------------------------------------------------------------------------------------------
2| --------------------------------------------------------------------------------------------
3| --------------------------------------------------------5---2--------------------------
4| -------5----7-7----------5----7-7--------5----7-7-------5---2--------5--7-------------
5| -------5----7-7----------5----7-7--------5----7-7-------3---0--------5--7-------------
6| -------3----5-5----------3----5-5--------3----5-5---------------------3--5-------------
Verse
1| -------------------------------------------------------------------------------------------
2| -------------------------------------------------------------------------------------------
3| -------------------------------------------------------------------------------------------
4| -------------------------------------------------------------------------------------------
5| -------------------3-----------------------------------------------------------------------
6| ---5------7-------------7-------5-5------7-----------------------------------------------
Interlude Thing

1| -------------------------------------------------------------------------------------------
2| -------------------------------------------------------------------------------------------
3| -----------------------------3--3-----------------------5--5----------------------------

Продолжаем грести бабос на ботах в Telegram.
Только в этот раз есть вариант автоматизировать это дело, привлекая рефералов. Вы можете заработать если »

4| --------7-----5--------------3--3------7------5---------5--5----------------------------- 5| -------------------7---------------------------------7------------------------------------- 6| -------------------------------------------------------------------------------------------- 1| ------------------------------------------------------------------------------------------- 2| ------------------------------------------------------------------------------------------- 3| --------------------------------5--5------------5--5--------5--5---------5--5--------- 4| --------7------5----------------5--5------------5--5--------5--5---------5--5--------- 5| --------------------7-----------------------7-------------7-------------7---------------- 6| ------------------------------------------------------------------------------------------- 1| ------------------------------------------------------------------------------------------- 2| ------------------------------------------------------------------------------------------- 3| ---9---9-9----9---9-9----9-9-9---9-9-9---9-9-9---9-9-9---------------------------- 4| ---9---9-9----9---9-9----9-9-9---9-9-9---9-9-9---9-9-9---------------------------- 5| ---7---7-7----7---7-7----7-7-7---7-7-7---7-7-7---7-7-7---------------------------- 6| ------------------------------------------------------------------------------------------- Back to the chorus.








О сайтеАккордыХит-парадПоискУроки ФорумыИщу песню
ПрограммыСвежачок-сПодпискаСтатьи
Яндекс.Метрика