Табулатура Metallica | Seek And Destroy  (3) гитара табулатуры уроки тексты песен Metallica текст lyrics песня аккорды песни ноты нота электрогитара струна  
   А Б В Г Д Е Ж З И К Л М Н О П Р С Т У Ф Х Ч Ш Ы Э Ю Я       Разные песни
1-9 A B C D E F G H I J K L M N O P Q R S T U V W Y Z      Все исполнители in english

    



группа Metallica, Табулатура песни Seek And Destroy (3)

Продолжаем грести бабос на ботах в Telegram.
Только в этот раз есть вариант автоматизировать это дело, привлекая рефералов. Вы можете заработать если »

Группа: Metallica - другие аккорды (225),   о группе (32 статей),   диски (11),   фотографии (49)
Табулатура песни: Seek And Destroy (3)
Просмотров: 3600
Подобрал: SLANG (gallosdima@yahoo.com)




    
e---------------------------------  a    ------------------
B--------------------------------- few   ------------------
G------7H8-7-------------------5-- times -9-7---7----------
D--------------7H8-7-------5-----7 then  -----9---9-8-75--
A--0-0-------0-------0-8-7---7----       ------------------
E---------------------------------       ------------------
  pm..       .       .....   .
intro
2)
D----------5-7-5-7----------------
A----------5-7-5-7---------7-5----
E--0-0-0-0---------0-0-0-0-----7-6
  pm......         .......
3)
D------------------------------5--
A--------------------------------7
E--0-0-0-0-0-0-0-0-0-0-0-0-7-6----
  pm......................
verse
4)                         first time       second time
G--5-----5-7-5           -7-5------------   -9-7---7----------
D--5-----5-7-5  3 times  -----7-6-5------   -----9---9-8-75--
A----0-0------           -----------7-6-5   ------------------
E-------------           ----------------   ------------------
    pm..
"running...hidding, dying"
5)
D--12--11--10--9----------------
A--10--9---8---7----------------
E----------------0-0-0-0-0-0-0-0

Продолжаем грести бабос на ботах в Telegram.
Только в этот раз есть вариант автоматизировать это дело, привлекая рефералов. Вы можете заработать если »

pm.............. "searching, seek and destroy" 6) G-------------------5----------------4--------------------------------- D--5------7-----7---5------7-----7---4------7-----7--------3-2-0------ A--0--0-0---0-0---0----0-0---0-0---0----0-0---0-0-----3-2-0-------3-0-- E---------------------------------------------------------------------- pm. ... . ... ... . ... ... pre-solo 7) G---------------------------------------------------------------------- D-------------------5----------------4--------------------------------- A--5------7-----7---5------7-----7---4------7-----7--------3-2-0------ E--0--0-0-0-0-0-0-0----0-0-0-0-0-0-0----0-0-0-0-0-0---3-2-0-------3-2-0 pm. ... . ... ... . ... ... second half of last solo part 8) D--12-11-----11-10-----10-9-------------12-11-----11-7-----7-9 A--10-9------9--8------8--7-------------10-9------9--5-----5-7 E--------0-0-------0-0------0-0-0-0-0-0-------0-0------0-0---- pm............................................................ 9) D--------------------------------- A------2-----5-----4-----5-----7\5 E--0-0-0-0-0-3-0-0-2-0-0-3-0-0-5\3 pm..... ..... ..... ..... ..... если песня вам понравилась убедительная просьбы отошлите ваше мнение на gallosdima@yahoo.com pleeaaseeee

искать в аптеке
список лекарств






О сайтеАккордыХит-парадПоискУроки ФорумыИщу песню
ПрограммыСвежачок-сПодпискаСтатьи
Яндекс.Метрика