Табулатура Muse | Unintended гитара табулатуры уроки тексты песен Muse текст lyrics песня аккорды песни ноты нота электрогитара струна  
   А Б В Г Д Е Ж З И К Л М Н О П Р С Т У Ф Х Ч Ш Ы Э Ю Я       Разные песни
1-9 A B C D E F G H I J K L M N O P Q R S T U V W Y Z      Все исполнители in english

    



группа Muse, Табулатура песни Unintended

Группа: Muse - другие аккорды (28),   о группе (3 статей),   диски (3),   фотографии (45)
Табулатура песни: Unintended
Просмотров: 2693




    
/ = slide up
 = slide down
h = hammer on
p = pull off


E: 022100
Am: x02210
D: xx0232
G4: 320033
C: x32010
H7: x21202
G-Am: 3x2210
F#-Am: 2x2210
F-Asus2: 1x2200
Esus4: 0x2200



Intro:
======

e|--------0------|---------------|--------0------|---------------|
H|--------0------|--------2-1-0--|----0---0------|--------2-1-0--|
G|--------1-----1|------1-------2|0h1-----1------|------1-------2|
D|----2-------2--|----2----------|------2--------|----2----------|
A|---------------|0h2------------|---------------|0h2------------|
E|0--------------|---------------|0--------------|---------------|


e|---------------|2--------------|---------------|2--------------|
H|--------0------|----0----------|--------0------|----0----------|
G|------------2--|--------2------|------------2--|--------2------|
D|----1----------|------------1--|----1----------|------------1--|
A|2--------------|---------------|2--------------|---------------|
E|---------------|---------------|---------------|---------------|


Verse:
======
used in the rest of the song. Iґll
only write down the first eight bars;
the rest is just like this:

[E] [Am]

Продолжаем грести бабос на ботах в Telegram.
Только в этот раз есть вариант автоматизировать это дело, привлекая рефералов. Вы можете заработать если »

e|---------------|0--------------|---------------|0--------------| H|--------0------|----0----------|--------1------|----1----------| G|------------1--|--------1------|------------2--|--------2------| D|----2----------|------------2--|----2----------|------------2--| A|---------------|---------------|0--------------|---------------| E|0--------------|---------------|---------------|---------------| You ... [D] [G4] e|---------------|2--------------|---------------|3--------------| H|--------3------|----3----------|--------3------|----3----------| G|----2-------2--|--------2------|------------0--|--------0------| D|0--------------|------------0--|----0----------|------------0--| A|---------------|---------------|---------------|---------------| E|---------------|---------------|3--------------|---------------| Here are the chords: E / Am / D / G4 C / H7 / E / E Repeat these chords until the mainpart is over! :) Outro: ====== Am / G-Am / F#-Am / F-Asus2 Esus4 / Esus4 / Esus4 / E And in the end: =============== e|---------------|---------------|---------------|---------------| H|---------------|---------------|---------------|---------------| G|---------------|---------------|---------------|---------------| D|---------------|---------------|---------------|---------------| A|---------------|---------------|---------------|---------------| E|0--------------|---------------|---------------|---------------| ^ hold!








О сайтеАккордыХит-парадПоискУроки ФорумыИщу песню
ПрограммыСвежачок-сПодпискаСтатьи
Яндекс.Метрика