Табулатура Muse | Sunburn гитара табулатуры уроки тексты песен Muse текст lyrics песня аккорды песни ноты нота электрогитара струна  
   А Б В Г Д Е Ж З И К Л М Н О П Р С Т У Ф Х Ч Ш Ы Э Ю Я       Разные песни
1-9 A B C D E F G H I J K L M N O P Q R S T U V W Y Z      Все исполнители in english

    



группа Muse, Табулатура песни Sunburn

Группа: Muse - другие аккорды (28),   о группе (3 статей),   диски (3),   фотографии (45)
Табулатура песни: Sunburn
Просмотров: 2087




    
Intro/verse (play 12 times)
|---7-----7---7-----7-----7---7---|---8-----8---8-----7-----7---7---|
|-----8-----8---8-----8-----8---8-|-----8-----8---8-----8-----8---8-|
|-------9---------------9---------|-------9---------------9---------|
|-9---------------7---------------|10---------------7---------------|
|---------------------------------|---------------------------------|
|---------------------------------|---------------------------------|


Chorus (play twice)
|-5--5-----5-|-7--7-----7-|-5--5-----5-|-7--7-----7-|
|-5--5-----5-|-8--8-----8-|-5--5-----5-|-8--8-----8-|
|-5--5-----5-|-9--9-----9-|-5--5-----5-|-9--9-----9-|
|-7--7-----7-|-9--9--x--9-|-7--7-----7-|-9--9--x--9-|
|-7--7--x--7-|-7--7--x--7-|-7--7--x--7-|-7--7--x--7-|
|-5--5--x--5-|------------|-5--5--x--5-|------------|


Verse 2 (play 6 times)
|-12-----------------------------------------|
|----12-------12--------15-12-------12-------|
|-------12-------12-----------12-------12----|
|-14-------14-------14-----------14-------14-|
|-----------------------12-------------------|
|--------------------------------------------|

|First time only
|--8--------8------7------------7/12-|
|----8--------8------10-----10--7/12-|
|------9--------9-------9------------|
|-10-----10--------7------7----------|
|------------------------------------|
|------------------------------------|

Repeat Chorus

Solo (repetively pick each note)
|---------------------------------------------|
|-/5-/5-/5-/5-/5-/5/6/7/8/9/10/11/12/13/14/15-|
|---------------------------------------------|
|---------------------------------------------|
|---------------------------------------------|
|---------------------------------------------|

Solo continued (play twice)             |second time only

Продолжаем грести бабос на ботах в Telegram.
Только в этот раз есть вариант автоматизировать это дело, привлекая рефералов. Вы можете заработать если »

|-9/12-9/12-9/12-/15-14-14-9/12-11------------| |----------------------------------9/13-121--| |---------------------------------------------| |---------------------------------------------| |---------------------------------------------| |---------------------------------------------| Repeat Chorus Interlude (4 times) |-------12--------------12-----|-------12--------------12-----| |---13------13------13----13---|---12------12------12----12---| |-12--12--12--12--12--12----12-|-12--12--12--12--12--12----12-| |------------------------------|------------------------------| |------------------------------|------------------------------| |------------------------------|------------------------------| Outro |--12----12----12----12----12----12----12----12----11----11---------| |----11----11----11----11----11----11----11----11----11----11-------| |-9-----9-----9-----9-----9-----9-----9-----9-----9-----9-----9-----| |-------------------------------------------------------------------| |-------------------------------------------------------------------| |-------------------------------------------------------------------| |-13----12----11----12----13----12----11----12----13----12----11----| |---11----11----11----11----11----11----11----11----11----11----11--| |------9-----9-----9-----9-----9-----9-----9-----9-----9-----9-----9| |-------------------------------------------------------------------| |-------------------------------------------------------------------| |-------------------------------------------------------------------| |-...-21----21----21----21----211p0-| |-...---20----20----20----20---------| |-...-----18----18----18----18-------| |-...--------------------------------| |-...--------------------------------| |-...--------------------------------|








О сайтеАккордыХит-парадПоискУроки ФорумыИщу песню
ПрограммыСвежачок-сПодпискаСтатьи
Яндекс.Метрика