Табулатура Muse | Muscle Museum гитара табулатуры уроки тексты песен Muse текст lyrics песня аккорды песни ноты нота электрогитара струна  
   А Б В Г Д Е Ж З И К Л М Н О П Р С Т У Ф Х Ч Ш Ы Э Ю Я       Разные песни
1-9 A B C D E F G H I J K L M N O P Q R S T U V W Y Z      Все исполнители in english

    



группа Muse, Табулатура песни Muscle Museum

Группа: Muse - другие аккорды (28),   о группе (3 статей),   диски (3),   фотографии (45)
Табулатура песни: Muscle Museum
Просмотров: 2635




    
------------------------------------------------------------------------------
-10-10-10-10-10-10-10-10--14-14-14-12-12-12-10-10-10-10-10-10---9--9--9--9----
-11-11-11-11-11-11-11-11--11-11-11-11-11-11-11-11-11-11-11-11--10-10-10-10----
------------------------------------------------------------------------------
------------------------------------------------------------------------------
------------------------------------------------------------------------------
                                                                              

------------------------------------------------------------------------------
-12-12-12-10-10-10--9--9--9--9--9--9--10-10-10-10--14-14-14-14-14-14-14-14----
-10-10-10-10-10-10-10-10-10-10-10-10--11-11-11-11--11-11-11-15-15-15-15-15----
------------------------------------------------------------------------------
------------------------------------------------------------------------------
------------------------------------------------------------------------------
                                                                              

------------------------------------------------------------------------------
-15-15-15-15-15-15-15-15-15---------------------------------------------------
-16-16-16-16-16-16-16-16-16---------------------------------------------------
------------------------------------------------------------------------------
------------------------------------------------------------------------------
------------------------------------------------------------------------------

------------------------------------------------------------------------------
-10-10-10-10-10-10-10-10--14-14-14-12-12-12-10-10-10-10-10-10---9--9--9--9----
-11-11-11-11-11-11-11-11--11-11-11-11-11-11-11-11-11-11-11-11--10-10-10-10----
------------------------------------------------------------------------------
------------------------------------------------------------------------------
------------------------------------------------------------------------------
                                                                              

------------------------------------------------------------------------------
-12-12-12-10-10-10--9--9--9--9--9--9--10-10-10-10--14-14-14-14-14-14-14-14----
-10-10-10-10-10-10-10-10-10-10-10-10--11-11-11-11--11-11-11-15-15-15-15-15----
------------------------------------------------------------------------------
------------------------------------------------------------------------------
------------------------------------------------------------------------------
                                                                              

------------------------------------------------------------------------------
-15-15-15-15-15-15-15-15-15---------------------------------------------------
-16-16-16-16-16-16-16-16-16---------------------------------------------------
------------------------------------------------------------------------------
------------------------------------------------------------------------------
------------------------------------------------------------------------------


She had something to confess to
But you don’t have the time so look the other way
You will wait until its over
To reveal what you’ve never shown her
Too little much to late

------------------------------------------------------------------------------
------------------------------------------------------------------------------
-----2-2-----2-2-----2-2-----2-2-1-1-----1-1-----1-1----1-1-------------------
-4-4-----4-4-----4-4-----4-4---------3-3-----3-3-----3-3----3-3---------------
------------------------------------------------------------------------------
------------------------------------------------------------------------------
                                                                              

------------------------------------------------------------------------------
------------------------------------------------------------------------------
-6-6-7-7---------6-6-7-7------------------------------------------------------
---------9-9-4-4---------9-9-4-4----------------------------------------------
------------------------------------------------------------------------------
------------------------------------------------------------------------------
                                                                              

------------------------------------------------------------------------------
------------------------------------------------------------------------------
-----2-2-----2-2-----2-2-----2-2-1-1-----1-1-----1-1----1-1-------------------
-4-4-----4-4-----4-4-----4-4---------3-3-----3-3-----3-3----3-3---------------
------------------------------------------------------------------------------
------------------------------------------------------------------------------
                                                                              

------------------------------------------------------------------------------
------------------------------------------------------------------------------
-6-6-7-7---------6-6-7-7------------------------------------------------------
---------9-9-4-4---------9-9-4-4----------------------------------------------
------------------------------------------------------------------------------
------------------------------------------------------------------------------
                                                                              

Too long trying to resist it
You’ve just gone and missed it
Itґs escaped your world


-2-2-2-5-2--2--5-2--2--------------4-4-4--4-1---1---4-1---1-------------------
-2-2-2----2--2----2---2------------6-6-6------2---2-----2---------------------
-2-2-2-----------------------------6-6-6--------------------------------------
-4-4-4-----------------------------6-6-6--------------------------------------
-4-4-4-----------------------------4-4-4--------------------------------------
-2-2-2-----------------------------4-4-4--------------------------------------
                                                                              

-5-5-5-5-5-5-5-5-5-5-5-5-5-5-5-5-5-5-5-5-5-5-5-5-5-5-5-5-5-5-5-5--------------
-7-7-7-7-7-7-7-7-7-7-7-7-7-7-7-7-7-7-7-7-7-7-7-7-7-7-7-7-7-7-7-7--------------
-7-7-7-7-7-7-7-7-7-7-7-7-7-7-7-7-7-7-7-7-7-7-7-7-7-7-7-7-7-7-7-7--------------
-7-7-7-7-7-7-7-7-7-7-7-7-7-7-7-7-7-7-7-7-7-7-7-7-7-7-7-7-7-7-7-7--------------
-5-5-5-5-5-5-5-5-5-5-5-5-5-5-5-5-5-5-5-5-5-5-5-5-5-5-5-5-5-5-5-5--------------
------------------------------------------------------------------------------

Продолжаем грести бабос на ботах в Telegram.
Только в этот раз есть вариант автоматизировать это дело, привлекая рефералов. Вы можете заработать если »

Can you feel that I have needed........... ------------------------------------------------------------------------------ ----2-------2-------6-------6-------2-------2-------3---3-2------------------- ---2--2---2---2---6---6---6---6---2---2---2---2---4---4-----4----------------- --------------------------------------------------------------4--------------- ----------------4-------4-----------------------2----------------------------- -2------2-----------------------2-------2------------------------------------- ------------------------------------------------------------------------------ ----2-------2-------6-------6-------2-------2-------3---3-2------------------- ---2--2---2---2---6---6---6---6---2---2---2---2---4---4-----4----------------- --------------------------------------------------------------4--------------- ----------------4-------4-----------------------2----------------------------- -2------2-----------------------2-------2------------------------------------- I’ll do it on my own -0-0-0-0-0-0-0-0--4-4-4-4-4-4-4-4|-2------------------------------------------ -0-0-0-0-0-0-0-0--6-6-6-6-6-6-6-6|-2------------------------------------------ -1-1-1-1-1-1-1-1--6-6-6-6-6-6-6-6|-2------------------------------------------ -2-2-2-2-2-2-2-2--6-6-6-6-6-6-6-6|-4------------------------------------------ -2-2-2-2-2-2-2-2--4-4-4-4-4-4-4-4|-4------------------------------------------ -0-0-0-0-0-0-0-0--4-4-4-4-4-4-4-4|-2------------------------------------------ ------------------------------------------------------------------------------ -10-10-10-10-10-10-10-10--14-14-14-12-12-12-10-10-10-10-10-10---9--9--9--9---- -11-11-11-11-11-11-11-11--11-11-11-11-11-11-11-11-11-11-11-11--10-10-10-10---- ------------------------------------------------------------------------------ ------------------------------------------------------------------------------ ------------------------------------------------------------------------------ ------------------------------------------------------------------------------ -12-12-12-10-10-10--9--9--9--9--9--9--10-10-10-10--14-14-14-14-14-14-14-14---- -10-10-10-10-10-10-10-10-10-10-10-10--11-11-11-11--11-11-11-15-15-15-15-15---- ------------------------------------------------------------------------------ ------------------------------------------------------------------------------ ------------------------------------------------------------------------------ ------------------------------------------------------------------------------ -15-15-15-15-15-15-15-15-15--------------------------------------------------- -16-16-16-16-16-16-16-16-16--------------------------------------------------- ------------------------------------------------------------------------------ ------------------------------------------------------------------------------ ------------------------------------------------------------------------------ Too long trying to resist it You’ve just gone and missed it Itґs escaped your world ------------------------------------------------------------------------------ -----2-2-----2-2-----2-2-----2-2-1-1-----1-1-----1-1----1-1------------------- -4-4-----4-4-----4-4-----4-4---------3-3-----3-3-----3-3----3-3--------------- ------------------------------------------------------------------------------ ------------------------------------------------------------------------------ ------------------------------------------------------------------------------ ------------------------------------------------------------------------------ -6-6-7-7---------6-6-7-7------------------------------------------------------ ---------9-9-4-4---------9-9-4-4---------------------------------------------- ------------------------------------------------------------------------------ ------------------------------------------------------------------------------ -2-2-2-5-2--2--5-2--2--------------4-4-4--4-1--------------------------------- -2-2-2----2--2----2---2------------6-6-6------2---6/7/6--2-------------------- -2-2-2-----------------------------6-6-6-------------------------------------- -4-4-4-----------------------------6-6-6-------------------------------------- -4-4-4-----------------------------4-4-4-------------------------------------- -2-2-2-----------------------------4-4-4-------------------------------------- -5-5-5-5-5-5-5-5-5-5-5-5-5-5-5-5-5-5-5-5-5-5-5-5-5-5-5-5-5-5-5-5-------------- -7-7-7-7-7-7-7-7-7-7-7-7-7-7-7-7-7-7-7-7-7-7-7-7-7-7-7-7-7-7-7-7-------------- -7-7-7-7-7-7-7-7-7-7-7-7-7-7-7-7-7-7-7-7-7-7-7-7-7-7-7-7-7-7-7-7-------------- -7-7-7-7-7-7-7-7-7-7-7-7-7-7-7-7-7-7-7-7-7-7-7-7-7-7-7-7-7-7-7-7-------------- -5-5-5-5-5-5-5-5-5-5-5-5-5-5-5-5-5-5-5-5-5-5-5-5-5-5-5-5-5-5-5-5-------------- ------------------------------------------------------------------------------ Can you feel that I have needed ------------------------------------------------------------------------------ ----2-------2-------6-------6-------2-------2-------3---3-2------------------- ---2--2---2---2---6---6---6---6---2---2---2---2---4---4-----4----------------- --------------------------------------------------------------4--------------- ----------------4-------4-----------------------2----------------------------- -2------2-----------------------2-------2------------------------------------- ------------------------------------------------------------------------------ ----2-------2-------6-------6-------2-------2-------3---3-2------------------- ---2--2---2---2---6---6---6---6---2---2---2---2---4---4-----4----------------- --------------------------------------------------------------4--------------- ----------------4-------4-----------------------2----------------------------- -2------2-----------------------2-------2------------------------------------- Solos.......

Колготки женские купить оптом из Иваново
и размеров. Высокое качество. Оптом по низким ценам
world-teks.ru







О сайтеАккордыХит-парадПоискУроки ФорумыИщу песню
ПрограммыСвежачок-сПодпискаСтатьи
Яндекс.Метрика