Табулатура Muse | Fillip гитара табулатуры уроки тексты песен Muse текст lyrics песня аккорды песни ноты нота электрогитара струна  
   А Б В Г Д Е Ж З И К Л М Н О П Р С Т У Ф Х Ч Ш Ы Э Ю Я       Разные песни
1-9 A B C D E F G H I J K L M N O P Q R S T U V W Y Z      Все исполнители in english

    



группа Muse, Табулатура песни Fillip

Группа: Muse - другие аккорды (28),   о группе (3 статей),   диски (3),   фотографии (45)
Табулатура песни: Fillip
Просмотров: 1491




    
E-------------------------------------------------------------------------------- 
B--0-8-8-8-8-8-------8-8-8-8-8-------8-8-8-8-8-------8-8-8-8-8------------------- 
G--0-0-0-0-0-0-------0-0-0-0-0-------0-0-0-0-0-------0-0-0-0-0------------------- 
D--0-----------5-5-5-----------5-5-5-----------5-5-5-----------5-5-5------------- 
A--0-----------5-5-5-----------5-5-5-----------5-5-5-----------5-5-5------------- 
E---0-----------3-3-3-----------3-3-3-----------3-3-3-----------3-3-3------------ 

E-------------------------------------------------------------------------------- 
B--12---------------------------------------------------------------------------- 
G---0---------------------------------------------------------------------------- 
D---0---------------------------------------------------------------------------- 
A---x--x-x-x--x--x-x-x--x--x-x-x--x--x-x-x--x--x-x-x--x--x-x-x--x--x-x-x--x--x--- 
E--10-10-x-x-10-10-x-x-10-10-x-x-10-10-x-x-10-10-x-x-10-10-x-x-10-10-x-x-10-10--- 

E-------------------------------------------------------------------------------- 
B--12---------------------------------------------------------------------------- 
G---0---------------------------------------------------------------------------- 
D---0---------------------------------------------------------------------------- 
A---x--x-x-x--x--x-x-x--x--x-x-x--x--x-x-x--x--x-x-x--x--x-x-x--x--x-x-x--x--x--- 
E--10-10-x-x-10-10-x-x-10-10-x-x-10-10-x-x-10-10-x-x-10-10-x-x-10-10-x-x-10-10---

E---------------------------- 
B--12------------------------ 
G---0------------------------ 
D---0------------------------ 
A---x--x-x-x--x--x-x-x--x--x- 
E--10-10-x-x-10-10-x-x-10-10- 

Itґs happening soon, Itґs happening soon, Itґs scent has been blowing in my 
direction. To me it is new, To me it is new, And itґs not going to change for anybody. 
E------------------------------------------------------------------------------ 
B------------------------------------------------------------------------------ 
G------------------------------------------------------------------------------ 
D------------------------------------------------------------------------------ 
A--2-2-0-2-5-2-2-0-2-7-2-2-0-2-7-5-3-3-2-0-2------------------------------------ 
E------------------------------------------------------------------------------ 

E------------------------------------------------------------------------------ 
B------------------------------------------------------------------------------ 
G------------------------------------------------------------------------------ 
D------------------------------------------------------------------------------ 
A--2-2-0-2-5-2-2-0-2-7-2-2-0-2-7-5-3-3-2-0-2----------------------------------- 
E------------------------------------------------------------------------------ 

And itґs gonna be our last memory, And itґs led me on, And on to you. 
E------------------------------------------------------------------------------ 
B------------------------------------------------------------------------------ 
G------------------------------------------------------------------------------ 
D-5-5-5-5-5-5-5-5--5-5-5-5-5-5-5-5-2-2-2-2-2-2-2-2-2-2-2-2-2-2-2-2------------- 
A-5-5-5-5-5-5-5-5--5-5-5-5-5-5-5-5-2-2-2-2-2-2-2-2-2-2-2-2-2-2-2-2------------- 
E-3-3-3-3-3-3-3-3--2-2-2-2-2-2-2-2-0-0-0-0-0-0-0-0-0-0-0-0-0-0-0-0------------- 

E----------------------------------2-2-2-2-2-2-2-2-2-2-2-2-2-2-2-2------------- 
B----------------------------------2-2-2-2-2-2-2-2-2-2-2-2-2-2-2-2------------- 
G-5-5-5-5-5-5-5-5-7-7-7-7-7-7-7-7--2-2-2-2-2-2-2-2-3-3-3-3-3-3-3-3-------------
D-5-5-5-5-5-5-5-5-7-7-7-7-7-7-7-7--4-4-4-4-4-4-4-4-4-4-4-4-4-4-4-4------------- 
A-3-3-3-3-3-3-3-3-5-5-5-5-5-5-5-5--4-4-4-4-4-4-4-4-4-4-4-4-4-4-4-4------------- 
E----------------------------------2-2-2-2-2-2-2-2-2-2-2-2-2-2-2-2------------- 

E------------------------------------------------------------------------------ 
B-0-8-8-8-8-8-------8-8-8-8-8-------8-8-8-8-8-------8-8-8-8-8------------------ 
G-0-0-0-0-0-0-------0-0-0-0-0-------0-0-0-0-0-------0-0-0-0-0------------------ 
D-0-----------5-5-5-----------5-5-5-----------5-5-5-----------5-5-5------------ 
A-0-----------5-5-5-----------5-5-5-----------5-5-5-----------5-5-5------------ 
E-0-----------3-3-3-----------3-3-3-----------3-3-3-----------3-3-3------------ 

Itґs got to be here, Itґs got to be there, Itґs got to be now Or Iґll lose for ever. 
This feeling is strange, This feeling is strange, But itґs not going to change for 
anybody. 
E------------------------------------------------------------------------------ 
G------------------------------------------------------------------------------ 
B------------------------------------------------------------------------------ 
D------------------------------------------------------------------------------ 
A--2-2-0-2-5-2-2-0-2-7-2-2-0-2-7-5-3-3-2-0-2------------------------------------ 
E------------------------------------------------------------------------------ 

E------------------------------------------------------------------------------ 
B------------------------------------------------------------------------------ 
G------------------------------------------------------------------------------ 
D------------------------------------------------------------------------------ 
A--2-2-0-2-5-2-2-0-2-7-2-2-0-2-7-5-3-3-2-0-2----------------------------------- 
E------------------------------------------------------------------------------ 

And itґs gonna be our last memory, And itґs led me on, and on to you. 

Продолжаем грести бабос на ботах в Telegram.
Только в этот раз есть вариант автоматизировать это дело, привлекая рефералов. Вы можете заработать если »

E------------------------------------------------------------------------------ B------------------------------------------------------------------------------ G------------------------------------------------------------------------------ D--5-5-5-5-5-5-5-5--5-5-5-5-5-5-5-5-2-2-2-2-2-2-2-2-2-2-2-2-2-2-2-2------------- A--5-5-5-5-5-5-5-5--5-5-5-5-5-5-5-5-2-2-2-2-2-2-2-2-2-2-2-2-2-2-2-2------------- E--3-3-3-3-3-3-3-3--2-2-2-2-2-2-2-2-0-0-0-0-0-0-0-0-0-0-0-0-0-0-0-0------------- E-----------------------------------2-2-2-2-2-2-2-2-2-2-2-2-2-2-2-2------------- B-----------------------------------2-2-2-2-2-2-2-2-2-2-2-2-2-2-2-2------------- G--5-5-5-5-5-5-5-5-7-7-7-7-7-7-7-7--2-2-2-2-2-2-2-2-3-3-3-3-3-3-3-3------------- D--5-5-5-5-5-5-5-5-7-7-7-7-7-7-7-7--4-4-4-4-4-4-4-4-4-4-4-4-4-4-4-4------------- A--3-3-3-3-3-3-3-3-5-5-5-5-5-5-5-5--4-4-4-4-4-4-4-4-4-4-4-4-4-4-4-4------------- E-----------------------------------2-2-2-2-2-2-2-2-2-2-2-2-2-2-2-2------------- E--2-2-2-2-2-2-2-2--2-2--2---2---2--2----2----2--------------------------------- B--2-2-2-2-2-2-2-2--2-2--2---2---2--2----2----2--------------------------------- G--4-4-4-4-4-4-4-4--3-3--3---3---3--3----3----3--------------------------------- D--4-4-4-4-4-4-4-4--4-4--4---4---4--4----4----4--------------------------------- A--4-4-4-4-4-4-4-4--4-4--4---4---4--4----4----4--------------------------------- E--2-2-2-2-2-2-2-2--2-2--2---2---2--2----2----2--------------------------------- Accuse me, Trust me, I never knew, That you were the one, you were the one, Oooh. E--3-------------------2----------------3-----------2-----1----0---1---0-------- B--3-------------------2----------------3-----------2-----1----0---1---0-------- G--3-------------------3----------------3-----------3-----1----1---1---0-------- D--5-------------------4----------------5-----------4-----3----2---3---2-------- A--5-------------------4----------------5-----------4-----3----2---3---2-------- E--3-------------------2----------------3-----------2-----1----0---1---0-------- E----------0-------------------------------------------------------------------- B------0-----0-----8-8-8-8-8-8-8-8-8-8-8-8-8-8-8-8-8-8-8-8-8-8-8-8-8-8-8-8-8-8- G----0---0-----0---0-0-0-0-0-0-0-0-0-0-0-0-0-0-0-0-0-0-0-0-0-0-0-0-0-0-0-0-0-0- D----------------2-2-2-2-2-2-2-2-2-2-2-2-2-2-2-2-2-2-2-2-2-2-2-2-2-2-2-2-2-2-2- A------------------2-2-2-2-2-2-2-2-2-2-2-2-2-2-2-2-2-2-2-2-2-2-2-2-2-2-2-2-2-2- E--0---------------0-0-0-0-0-0-0-0-0-0-0-0-0-0-0-0-0-0-0-0-0-0-0-0-0-0-0-0-0-0- E------------------------------------------------------------------------------ B------------------------------------------------------------------------------ G------------------------------------------------------------------------------ D------------------------------------------------------------------------------ A--2-2-0-2-5-2-2-0-2-7-2-2-0-2-7-5-3-3-2-0-2------------------------------------ E------------------------------------------------------------------------------ And itґs gonna be our last memory, And itґs led me on, and on to you. E------------------------------------------------------------------------------- B------------------------------------------------------------------------------- G------------------------------------------------------------------------------- D--5-5-5-5-5-5-5-5--5-5-5-5-5-5-5-5-2-2-2-2-2-2-2-2-2-2-2-2-2-2-2-2------------- A--5-5-5-5-5-5-5-5--5-5-5-5-5-5-5-5-2-2-2-2-2-2-2-2-2-2-2-2-2-2-2-2------------- E--3-3-3-3-3-3-3-3--2-2-2-2-2-2-2-2-0-0-0-0-0-0-0-0-0-0-0-0-0-0-0-0------------- E-----------------------------------0-0-0-0-0-0-0-0-0-0-0-0-0-0-0-0------------- B-----------------------------------0-0-0-0-0-0-0-0-0-0-0-0-0-0-0-0------------- G--5-5-5-5-5-5-5-5-7-7-7-7-7-7-7-7--1-1-1-1-1-1-1-1-1-1-1-1-1-1-1-1------------- D--5-5-5-5-5-5-5-5-7-7-7-7-7-7-7-7--2-2-2-2-2-2-2-2-2-2-2-2-2-2-2-2------------- A--3-3-3-3-3-3-3-3-5-5-5-5-5-5-5-5--2-2-2-2-2-2-2-2-2-2-2-2-2-2-2-2------------- E-----------------------------------0-0-0-0-0-0-0-0-0-0-0-0-0-0-0-0------------- And itґs gonna be our last memory, And itґs led me on, and on to you. E------------------------------------------------------------------------------- B------------------------------------------------------------------------------- G------------------------------------------------------------------------------- D--5-5-5-5-5-5-5-5--5-5-5-5-5-5-5-5-2-2-2-2-2-2-2-2-2-2-2-2-2-2-2-2------------- A--5-5-5-5-5-5-5-5--5-5-5-5-5-5-5-5-2-2-2-2-2-2-2-2-2-2-2-2-2-2-2-2------------- E--3-3-3-3-3-3-3-3--2-2-2-2-2-2-2-2-0-0-0-0-0-0-0-0-0-0-0-0-0-0-0-0------------- E-----------------------------------2-2-2-2-2-2-2-2-2-2-2-2-2-2-2-2------------- B-----------------------------------2-2-2-2-2-2-2-2-2-2-2-2-2-2-2-2------------- G--5-5-5-5-5-5-5-5-7-7-7-7-7-7-7-7--2-2-2-2-2-2-2-2-3-3-3-3-3-3-3-3------------- D--5-5-5-5-5-5-5-5-7-7-7-7-7-7-7-7--4-4-4-4-4-4-4-4-4-4-4-4-4-4-4-4------------- A--3-3-3-3-3-3-3-3-5-5-5-5-5-5-5-5--4-4-4-4-4-4-4-4-4-4-4-4-4-4-4-4------------- E-----------------------------------2-2-2-2-2-2-2-2-2-2-2-2-2-2-2-2------------- You.... E--2-2-2-2-2-2-2-2--2-2--2---2---2--2----2----2--------------------------------- B--2-2-2-2-2-2-2-2--2-2--2---2---2--2----2----2--------------------------------- G--4-4-4-4-4-4-4-4--3-3--3---3---3--3----3----3--------------------------------- D--4-4-4-4-4-4-4-4--4-4--4---4---4--4----4----4--------------------------------- A--4-4-4-4-4-4-4-4--4-4--4---4---4--4----4----4--------------------------------- E--2-2-2-2-2-2-2-2--2-2--2---2---2--2----2----2---------------------------------




Error: Incorrect password!




О сайтеАккордыХит-парадПоискУроки ФорумыИщу песню
ПрограммыСвежачок-сПодпискаСтатьи
Яндекс.Метрика