Табулатура Muse | Cave гитара табулатуры уроки тексты песен Muse текст lyrics песня аккорды песни ноты нота электрогитара струна  
   А Б В Г Д Е Ж З И К Л М Н О П Р С Т У Ф Х Ч Ш Ы Э Ю Я       Разные песни
1-9 A B C D E F G H I J K L M N O P Q R S T U V W Y Z      Все исполнители in english

    



группа Muse, Табулатура песни Cave

Группа: Muse - другие аккорды (28),   о группе (3 статей),   диски (3),   фотографии (45)
Табулатура песни: Cave
Просмотров: 1360
Прислал: Forever (forever@akkords.ru)




    
Intro:
|-------------|-------------|-------------|-------------|------------------|
|-------------|-------------|-------------|-------------|-----------5b6r5--|
|-----------7-|-----------7-|-----------7-|-----------7-|-----------------7|
|-6-6-6-6-6---|-6-6-6-6-6---|-6-6-6-6-6---|-6-6-6-6-6---|-6-6-6-6-6--------|
|-------------|-------------|-------------|-------------|------------------|
|-------------|-------------|-------------|-------------|------------------|


|-------------------|-------------------|---------------------|
|-----------5b6r5---|-----------5b6r5---|-------------6-------|
|-----------------7-|-----------------7-|-----------7---7-----|
|-6-6-6-6-6---------|-6-6-6-6-6---------|-6-6-6-6-6-------5-7-|
|-------------------|-------------------|---------------------|
|-------------------|-------------------|---------------------|


|---------------------|---------------------|---------------------|
|-------------6-------|-------------6-------|-------------6-------|
|-----------7---7-----|-----------7---7-----|-----------7---7-----|
|-6-6-6-6-6-------5-7-|-6-6-6-6-6-------5-7-|-6-6-6-6-6-------5-7-|
|---------------------|---------------------|---------------------|
|---------------------|---------------------|---------------------|


|---------------------|-------------------13----------|
|-------------6-------|----------------15----15-------|
|-----------7---7-----|-13-13-13-13-13----------12-14-|
|-6-6-6-6-6-------5-7-|-------------------------------|
|---------------------|-------------------------------|
|---------------------|-------------------------------|


|-------------------13----------|-------------------13----------|
|----------------15----15-------|----------------------15-------|
|-13-13-13-13-13----------12-14-|-13-13----13-13----------12-14-|
|-------------------------------|-------12-------12-------------|
|-------------------------------|-------------------------------|
|-------------------------------|-------------------------------|


|-------------------13----------|
|----------------------15-------|
|-13-13----13-13----------12-14-|
|-------12-------12-------------|
|-------------------------------|
|-------------------------------|


Verse

|------------------|------------------|------------------|-----------------|
|------------------|------------------|------------------|-----------------|
|------------------|------------------|------------------|-----------------|
|------------------|------------------|------------------|-----------------|
|-12---------------|------------------|------------------|-----------------|
|-10---------------|------------------|------------------|-----------------|
Leave me alone... Iґll do it myself...

|------------------|------------------|------------------|-----------------|
|------------------|------------------|------------------|-----------------|
|------------------|------------------|------------------|-----------------|
|--------5-------5-|-------5--------5-|-------5--------5-|-------5-------5-|
|------------------|------------------|------------------|-----------------|
|------------------|------------------|------------------|-----------------|
When thersґs nothing...

|---------------------|---------------------|---------------------|
|-------------6-------|-------------6-------|-------------6-------|
|-----------7---7-----|-----------7---7-----|-----------7---7-----|
|-6-6-6-6-6-------5-7-|-6-6-6-6-6-------5-7-|-6-6-6-6-6-------5-7-|
|---------------------|---------------------|---------------------|
|---------------------|---------------------|---------------------|


|---------------------|-----------------|-----------|-----------|----------|
|-------------6-------|-----------------|-----------|-----------|----------|
|-----------7---7-----|-----------------|-----------|-----------|----------|
|-6-6-6-6-6-------5-7-|-7---------------|-----------|-----------|----------|
|---------------------|-5---------------|-----------|-----------|----------|
|---------------------|-----------------|-----------|-----------|----------|
You can see it...


|------------------|------------------|------------------|-----------------|
|------------------|------------------|------------------|-----------------|
|------------------|------------------|------------------|-----------------|
|--------5-------5-|-------5--------5-|-------5--------5-|-------5-------5-|
|------------------|------------------|------------------|-----------------|
|------------------|------------------|------------------|-----------------|
So come in my

Chorus

|---------1-----|---------2-----|---------3-----|---------3-----|
|-----3-------3-|-----3-------3-|-----3-------3-|-----3-------3-|
|---2---2---2---|---2---2---2---|---3---3---3---|---3---3---3---|
|-0-------------|-0-------------|---------------|---------------|
|---------------|---------------|---------------|---------------|
|---------------|---------------|-3-------------|-3-------------|
Cave...

|---------1-----|---------2-----|---------3-----|---------3-----|
|-----3-------3-|-----3-------3-|-----3-------3-|-----3-------3-|
|---2---2---2---|---2---2---2---|---3---3---3---|---3---3---3---|
|-0-------------|-0-------------|---------------|---------------|
|---------------|---------------|---------------|---------------|
|---------------|---------------|-3-------------|-3-------------|


|---------1-----|---------2-----|---------3-----|---------3-----|
|-----3-------3-|-----3-------3-|-----3-------3-|-----3-------3-|
|---2---2---2---|---2---2---2---|---3---3---3---|---3---3---3---|
|-0-------------|-0-------------|---------------|---------------|
|---------------|---------------|---------------|---------------|
|---------------|---------------|-3-------------|-3-------------|


|---------1-----|---------2-----|---------3-----|---------3-----|
|-----3-------3-|-----3-------3-|-----3-------3-|-----3-------3-|
|---2---2---2---|---2---2---2---|---3---3---3---|---3---3---3---|
|-0-------------|-0-------------|---------------|---------------|
|---------------|---------------|---------------|---------------|
|---------------|---------------|-3-------------|-3-------------|


|---------------|---------------|---------------|---------------------|
|-----------5b6-|-----------5b6-|-----------5b6-|-------------6-------|
|---------------|---------------|---------------|-----------7---7-----|
|-6-6-6-6-6-----|-6-6-6-6-6-----|-6-6-6-6-6-----|-6-6-6-6-6-------5-7-|
|---------------|---------------|---------------|---------------------|
|---------------|---------------|---------------|---------------------|


|---------------------|---------------------|-------------------13---------|
|-------------6-------|-------------6-------|----------------------15------|
|-----------7---7-----|-----------7---7-----|-13-13----13-13----------12-14|

Продолжаем грести бабос на ботах в Telegram.
Только в этот раз есть вариант автоматизировать это дело, привлекая рефералов. Вы можете заработать если »

|-6-6-6-6-6-------5-7-|-6-6-6-6-6-------5-7-|-------12-------12------------| |---------------------|---------------------|------------------------------| |---------------------|---------------------|------------------------------| |-------------------13----------| |----------------------15-------| |-13-13----13-13----------12-14-| |-------12-------12-------------| |-------------------------------| |-------------------------------| Verse |------------------|------------------|------------------|-----------------| |------------------|------------------|------------------|-----------------| |------------------|------------------|------------------|-----------------| |-7----------------|------------------|------------------|-----------------| |-5----------------|------------------|------------------|-----------------| |------------------|------------------|------------------|-----------------| Please hold your... So youґll never... |------------------|------------------|------------------|-----------------| |------------------|------------------|------------------|-----------------| |------------------|------------------|------------------|-----------------| |--------5-------5-|-------5--------5-|-------5--------5-|-------5-------5-| |------------------|------------------|------------------|-----------------| |------------------|------------------|------------------|-----------------| And donґt ever... |------------------|------------------|------------------| |------------------|------------------|------------------| |------------------|------------------|------------------| |----10--------5-6-|-7-7-10-7-----5-6-|-7-7-10-7-----5-6-| |----8---7-6-7-3-4-|-5-5-8--5-6-7-3-4-|-5-5-8--5-6-7-3-4-| |--------5-4-5-----|----------4-5-----|----------4-5-----| |----------------------------|-----------|-----------|----------|----------| |----------------------------|-----------|-----------|----------|----------| |----------5h7-7-7-5h7-7-5h7-|-----------|-----------|----------|----------| |-7-7-10-7-------------------|-----------|-----------|----------|----------| |-5-5-8--5-------------------|-----------|-----------|----------|----------| |----------------------------|-----------|-----------|----------|----------| Leave me alone... |------------------|------------------|------------------|-----------------| |------------------|------------------|------------------|-----------------| |------------------|------------------|------------------|-----------------| |--------5-------5-|-------5--------5-|-------5--------5-|-------5-------5-| |------------------|------------------|------------------|-----------------| |------------------|------------------|------------------|-----------------| So come in my Chorus |---------1-----|---------2-----|---------3-----|---------3-----| |-----3-------3-|-----3-------3-|-----3-------3-|-----3-------3-| |---2---2---2---|---2---2---2---|---3---3---3---|---3---3---3---| |-0-------------|-0-------------|---------------|---------------| |---------------|---------------|---------------|---------------| |---------------|---------------|-3-------------|-3-------------| Cave... |---------1-----|---------2-----|---------3-----|---------3-----| |-----3-------3-|-----3-------3-|-----3-------3-|-----3-------3-| |---2---2---2---|---2---2---2---|---3---3---3---|---3---3---3---| |-0-------------|-0-------------|---------------|---------------| |---------------|---------------|---------------|---------------| |---------------|---------------|-3-------------|-3-------------| |---------1-----|---------2-----|---------3-----|---------3-----| |-----3-------3-|-----3-------3-|-----3-------3-|-----3-------3-| |---2---2---2---|---2---2---2---|---3---3---3---|---3---3---3---| |-0-------------|-0-------------|---------------|---------------| |---------------|---------------|---------------|---------------| |---------------|---------------|-3-------------|-3-------------| |---------1-----|---------2-----|---------3-----|---------3-----| |-----3-------3-|-----3-------3-|-----3-------3-|-----3-------3-| |---2---2---2---|---2---2---2---|---3---3---3---|---3---3---3---| |-0-------------|-0-------------|---------------|---------------| |---------------|---------------|---------------|---------------| |---------------|---------------|-3-------------|-3-------------| Interlude (wait a couple of bars) The piano does the work here, so, relax. |--------0-|-----------|-------1-|-----------------------------------------| |----3-----|-----------|---3-----|-----------------------------------------| |--2---2---|-----------|-2---2---|-----------------------------------------| |----------|-----------|---------|---ho hum...-----------------------------| |----------|-----------|---------|-----------------------------------------| |----------|-----------|---------|-----------------------------------------| Solo |---------------|------------------------------------|---------------------| |-8b10-10r8-8-7-|------------------------------------|---------------------| |---------------|-7-9p7-9p7-9b10-9b10-9b10-10-10r9-7-|-7-9b11-11r9-7-6-5-4-| |---------------|------------------------------------|------------7-7-7-7--| |---------------|------------------------------------|---------------------| |---------------|------------------------------------|---------------------| |-------------5---|---------------|----------------------------------------| |---------------6-|-8b10-10r8-8-7-|----------------------------------------| |-42/4-4-4-4-----|---------------|-7-9p7-9p7-9b10-9b10-9b10-10-10r9-7-----| |-----------------|---------------|----------------------------------------| |-----------------|---------------|----------------------------------------| |-----------------|---------------|----------------------------------------| | Second guitar comes in here. | |-----------------|---------------|--12-12b13-12b13-12b13-12b13-12b13r12-10| |-----------------|---------------|----------------------------------------| |-----------------|---------------|----------------------------------------| |-----------------|---------------|----------------------------------------| |-----------------|---------------|----------------------------------------| |-----------------|---------------|----------------------------------------| |---------------------|-------------------| |---------------------|-------------------| |-7-9b11-11r9-7-6-5-4-|-4-4-4-4-4-4-4-4/7-| |------------7-7-7-7--|-------------------| |---------------------|-------------------| |---------------------|-------------------|








О сайтеАккордыХит-парадПоискУроки ФорумыИщу песню
ПрограммыСвежачок-сПодпискаСтатьи
Яндекс.Метрика