Табулатура Muse | Bliss гитара табулатуры уроки тексты песен Muse текст lyrics песня аккорды песни ноты нота электрогитара струна  
   А Б В Г Д Е Ж З И К Л М Н О П Р С Т У Ф Х Ч Ш Ы Э Ю Я       Разные песни
1-9 A B C D E F G H I J K L M N O P Q R S T U V W Y Z      Все исполнители in english

    



группа Muse, Табулатура песни Bliss

Группа: Muse - другие аккорды (28),   о группе (3 статей),   диски (3),   фотографии (45)
Табулатура песни: Bliss
Просмотров: 1771
Прислал: Forever




    
Intro
Chords:Cm,Bb,Fm


Cm
e----------11------15--11--------------------
B------13------13----------13----------------
G--12--------------------------12------------
D--------------------------------------------
A--------------------------------------------
E--------------------------------------------

Bb
e----------10------13--10--------------------
B------11------11----------11----------------
G--10--------------------------10------------
D--------------------------------------------
A--------------------------------------------
E--------------------------------------------

Fm
e-----------8------13---8--------------------
B-------9------9------------9----------------
G--10--------------------------10------------
D--------------------------------------------
A--------------------------------------------
E--------------------------------------------

Cm
e----------15------15--11--------------------
B------13------13----------13----------------
G--12--------------------------12------------
D--------------------------------------------
A--------------------------------------------
E--------------------------------------------

Bb
e----------10------13--10--------------------
B------11------11----------11----------------
G--10--------------------------10------------
D--------------------------------------------
A--------------------------------------------
E--------------------------------------------

Fm
e-----------8------13---8--------------------
B-------9------9------------9----------------
G--10--------------------------10------------
D--------------------------------------------
A--------------------------------------------

Продолжаем грести бабос на ботах в Telegram.
Только в этот раз есть вариант автоматизировать это дело, привлекая рефералов. Вы можете заработать если »

E-------------------------------------------- Cm e----------15------15--11------11------------ B------13------13----------13---------------- G--12---------------------------------------- x2 D-------------------------------------------- A-------------------------------------------- E-------------------------------------------- REPEAT THIS PATTERN FOR VERSE Chorus C Am G peace and joy in your mind C Am E i want the peace and the joy in your mind C Am G give me peace and joy in your mind C Am E i want the peace and the joy in your mind Then play the chords of the verse but not the riff once: Cm, Bb, Fm, Cm, Bb, Fm, Cm Then back to riff once and then 2nd verse Chorus C Am G peace and joy in your mind C Am E i want the peace and the joy in your mind C Am G give me peace and joy in your mind C Am E i want the peace and the joy in your mind After this comes a solo with tremolo picking which I canґt really make out on he version i have. Chords for chorus It sounds like heґs playing the chord really high up the fretboard C Am G E e-0-------0-------15-------0---------- B-13------13------0--------0---------- G-0-------14------0--------13--------- D-14------14------0--------14--------- A-15------0-------14-------14--------- E-X-------x-------15-------0----------








О сайтеАккордыХит-парадПоискУроки ФорумыИщу песню
ПрограммыСвежачок-сПодпискаСтатьи
Яндекс.Метрика