Табулатура Metallica | The Four Horsemen гитара табулатуры уроки тексты песен Metallica текст lyrics песня аккорды песни ноты нота электрогитара струна  
   А Б В Г Д Е Ж З И К Л М Н О П Р С Т У Ф Х Ч Ш Ы Э Ю Я       Разные песни
1-9 A B C D E F G H I J K L M N O P Q R S T U V W Y Z      Все исполнители in english

    



группа Metallica, Табулатура песни The Four Horsemen

Работа в Европе для граждан РФ, Украины, СНГ

  • минимальная зарплата $500.
  • виза и контракт на полгода, возможно продление
  • проживание оплачивает работодатель
  • нужен только загранпаспорт
  • оформление 190 €
  • данное предложение - отличная возможность эмигрировать в Европу и закрепиться здесь навсегда.

  • Мы свяжемся с Вами по WhatsApp или Viber и ответим на любые вопросы.
    на нашем сайте можно почитать подробнее »

    Группа: Metallica - другие аккорды (225),   о группе (32 статей),   диски (11),   фотографии (49)
    Табулатура песни: The Four Horsemen
    Просмотров: 2347
    Прислал: Hero of the daY (julik.gony@mail.ru)




        
    Tempo = 204
    
    Intro/Post chorus (triplet feel - e e = q e)
       C5  G5   D5  E5   N.C.
    ||-----------------|-------------------------|
    ||-----------------|-------------------------|
    ||5--------7---5---|-------------------------|
    ||5---5----7---5---|-------------------------|
    ||3---5----5---3---|7--5--7--5--7--5--7--5---|
    ||----3------------|0-----0-----0-----0----7-|
    
    |-------------------------------|-------------------------||
    |-------------------------------|-------------------------||
    |-------------------------------|-------------------------||
    |--------------------------5-7p5|-------------------------||
    |5--7--5--7--5--7--5---5-7------|7--5--7--5--7--5--7--5---||
    |---0-----0-----0----7----------|0-----0-----0-----0----7-||
    Verse
           E5        E5          E5    D5              E5       E5          E5    C5    D5
      /-3-\   /-3-\     /-3-\                 /-3-\   /-3-\      /-3-\
    ||-------------------|----------------------|--------------------|-----------------------|
    ||-------------------|----------------------|--------------------|-----------------------|
    ||------9--------9---|-------9-----7-7-7-7--|------9--------9----|------9-----5-----7----|
    ||------9--------9---|-------9-----7-7-7-7--|------9--------9----|------9-----5-----7----|
    ||------7--------7---|-------7-----5-5-5-5--|------7--------7----|------7-----3-----5----|
    ||0-0-0----0-0-0-----|0-0-0-----------------|0-0-0----0-0-0------|0-0-0------------------|
     pm....    .....      .....                    .....    .....       .....
           E5       E5          E5    G5    E5      C5  G5   D5  C5
     /-3-\   /-3-\     /-3-\
    |-------------------|------------------------|-------------------||
    |-------------------|------------------------|-------------------||
    |------9--------9---|-------9-----12----9----|--5--------7---5---||
    |------9--------9---|-------9-----12----9----|--5---5----7---5---||
    |------7--------7---|-------7-----10----7----|--3---5----5---3---||
    |0-0-0----0-0-0-----|0-0-0-------------------|------3------------||
    pm....    .....      .....
    Chorus
    |-------------------|--------------------|-------------------|-------------------|
    |-------------------|--------------------|-------------------|-------------------|
    |--9--------------9\7-----------------7\5----------------5\4------------x\\-|
    |--9--------------9\7-----------------7\5----------------5\4------------x\\-|
    |--7--------------7\5-----------------5\3----------------3\2------------x\\-|
    |-------------------|--------------------|-------------------|-------------------|
    |-------------------|--------------------|-------------------|-------------------|
    |-------------------|--------------------|-------------------|-------------------|
    |--9--------------9\7-----------------7\5----------------5\4---------4-5-4----|
    |--9--------------9\7-----------------7\5----------------5\4---------4-5-4-5--|
    |--7--------------7\5-----------------5\3----------------3\2---------2-3-2-5--|
    |-------------------|--------------------|-------------------|----------------3--|
    pre bridge
    1)
            /-3-       /-3-
    |-------------------------|
    |-------------------------|
    |*-----------------------*|
    |*-----------------------*|
    |-------------------------|
    |-0--0--0-0-0-0--0--0-0-0-|
    pm.........................
    2)
            /-3-       /-3-                               /-3-       /-3-                       
    |-------------------------|--------------------|-------------------------|-----------------|
    |-------------------------|--------------------|-------------------------|-----------------|
    |-------------------------|--------------------|-------------------------|-----------------|
    |-------------------------|-------------109-9-|-------------------------|--------------9--|
    |-------------------------|--------------87-7-|-------------------------|--------------7--|
    |-0--0--0-0-0-0--0--0-0-0-|-0--0--0-0-0--------|-0--0--0-0-0-0--0--0-0-0-|-0--0--0-0-0-----|
    p......................................         ......................................
    3)
    free time:
       /---3---\  /---3---\   /---3---\  /---3---\   /---3---\  /---3---\
    |-------------------------|------------------------|------------------------|
    |-------------------------|------------------------|------------------------|
    |-------------------------|------------------------|------------------------|
    |-------------------------|------------------------|------------------------|
    |--7---5-------5----------|------------------------|-7---5-------5----------|
    |----------7-------7---6--|-5---3---5---0---3---5--|---------7-------7---6--|
              tempo=164
              Bridge
              C5    C#5   D5    N.C.
    |-------------------------||--------------------------------|
    |----p--------------------||--------------------------------|
    |----a--------------------||--------------------------------|
    |----u----5-----6-----7---||--------------------------------|
    |----s----3-----4-----5---||-----------------8---7---5---7--|
    |-5--e--------------------||-0---0---5---7------------------|
                                 pm...
                  C5      C#5     D5
    |---------------------------------||
    |---------------------------------||
    |---------------------------------||
    |-------------5-------6-------7---||
    |-------------3-------4-------5---||
    |-0---0---0-------0-------0-------||
      pm.......       pm      pm
    ||--------------------------------|---------------------------------||
    ||--------------------------------|---------------------------------||
    ||--------------------------------|---------------------------------||
    ||--------------------------------|-------------5-------6-------7---||
    ||--------------------------------|-------------3-------4-------5---||
    ||-0---0---0---0---0---0---0---0--|-0---0---0-------0-------0-------||
    Solo
    Backing Riff
    Tempo = 90
    ||------------------------------|----------------------------||
    ||------------------------------|----------------------------||
    ||------------------------------|----------------------------||
    ||--------9--------------7------|--------9-------------7-----||
    ||-7--7-----7--------------7----|----------7-------------7---||
    ||------------7--10--10------10-|-8--8-------8--7--7-------7-||
    
    Solo 1
    |-----------------------------------------|--15b--12--15--14b~~~----|
    |--15b--15b--15b~~~--(15)p12--15--15b~~~--|-------------------------|
    |-----------------------------------------|--------------------\9--|
    |-----------------------------------------|-------------------------|
    |-----------------------------------------|-------------------------|
    |-----------------------------------------|-------------------------|
    
    |7---------9--7------------10--9--7----------|
    |---10--7--------10--9--7------------7h10p7--|
    |--------------------------------------------|
    |--------------------------------------------|
    |--------------------------------------------|
    |--------------------------------------------|
    
    |---------------------------------|----7-7-7-----7-7-----7-7----7-7-7-7-|
    |7--10p7--------------------------|----7-7-7-----7-7-----7-7----7-7-7-7-|
    |---------9--7--6h7--6------------|-/9--------/9------/9-----/9---------|
    |-----------------------7---------|-------------------------------------|
    |--------------------------7-(7)\|-------------------------------------|
    |---------------------------------|-------------------------------------|
    
    |---------------------------------------------------------|
    |-10b~~~-(10)--10p7---------------------------------------|
    |--------------------9--7-----7--9b-(9)p7----7~~~---------|
    |--------------------------9--------------9-------12--12--|
    |---------------------------------------------------------|
    |---------------------------------------------------------|
    
    |------------------------------------------------------------------------|
    |-------------------------------------------------12--13p12------12--13--|
    |11h12--11------11--12--11h12p11------11--12--14-------------14----------|
    |-----------14--------------------14-------------------------------------|
    |------------------------------------------------------------------------|
    |------------------------------------------------------------------------|
    
    |---------------------------------20-------|
    |13/15--15/17--17/19--19/20--20~~~---(20)\|
    |------------------------------------------|
    |------------------------------------------|
    |------------------------------------------|
    |------------------------------------------|
    
     Gtr.2
    |17b19--17b19r17-15-17p15-14-15p14\12--14p12----------------|
    |-------------------------------------------15-15--14-12-14\|
    |------------------------------------------------------------|
    |------------------------------------------------------------|
    |------------------------------------------------------------|
    |------------------------------------------------------------|
    ||
    | Gtr.3
    |17b19--17b19r17-15-17p15-14-15p14-12--14p12-10---12p10--8--|
    |-----------------------------------------------------------|
    |-----------------------------------------------------------|
    |-----------------------------------------------------------|
    |-----------------------------------------------------------|
    |-----------------------------------------------------------|
    
    |-----------------------------------------------------|
    |-12-10-12--10-8-10-8---8-----------------------------|
    |---------------------9---9-7--9-7--------------------|
    |----------------------------------9-7----------------|
    |--------------------------------------10-7-----------|
    |-------------------------------------------10--7--7--|
    |                                              pm....
    |
    |-10p8-7-8p7-5--7-5---5-------------------------------|
    |-------------------8---8--7-8p7-5-7-5----------------|
    |--------------------------------------7--6-----------|
    |--------------------------------------------7--(7)-/-|
    |-----------------------------------------------------|
    |-----------------------------------------------------|
    Gtrs.2&3
    
    Узнай ВСЕ о своем друге в ВК или FB
    |---------------------------------------------12----12--| |-------------------8---8-10-8-10-12-10-12-15----15-----| |-------7---7-9-7-9---9---------------------------------| |-9-7-9---9---------------------------------------------| |-------------------------------------------------------| |-------------------------------------------------------| pm......................| |15p12-12-12-15p12-12-12-12-15p12-12-12-12-12-12-12-12-15p12- |------------------------------------------------------------ |------------------------------------------------------------ |------------------------------------------------------------ |------------------------------------------------------------ |------------------------------------------------------------ -12-12-12-12-12--15b17--15b17--| -------------------------------| -------------------------------| -------------------------------| -------------------------------| -------------------------------| |15b17--15-12-15p12-15p12-15p12-12h15p12----12-15p12-12h15p12----12- |----------------------------------------15-------------------15---- |------------------------------------------------------------------- |------------------------------------------------------------------- |------------------------------------------------------------------- |------------------------------------------------------------------- -15p12-12h15p12----12-15p12-12-| ----------------15-------------| -------------------------------| -------------------------------| -------------------------------| -------------------------------| |15p12----12-15p12-12h15p12----12-15p1--15p12----12--15b17---15b17---15b17--15\| |------15-------------------15----------------15--------------------------------| |-------------------------------------------------------------------------------| |-------------------------------------------------------------------------------| |-------------------------------------------------------------------------------| |-------------------------------------------------------------------------------| | | |17p12-12h15p12--12--15p12-17p12-12h15p12--12-15p12-15-12-----------------------| |--------------15------------------------15---------------15--12----------------| |----------------------------------------------------------------14--12---------| |-----------------------------------------------------------------------14--12\| |-------------------------------------------------------------------------------| |-------------------------------------------------------------------------------| |-----------------------------------------------|---------------------| |-----------------------------------------------|---------------------| |-12h14-12p11h12p11----11-----------------------|---------------------| |-------------------14----14-12p11h12p11\9-11p9\|--7-~-~-~----------| |-----------------------------------------------|---------------------| |-----------------------------------------------|---------------------| | | |-----------------------------------------------|---------------------| |-------------------------------10--8-7h8p7-----|---------------------| |----7-9-7-9b11r9p7----7--9--7--------------7---|---------------------| |--9----------------9-------------------------9-|--7-~-~-~------------| |-----------------------------------------------|---------------------| |-----------------------------------------------|---------------------| |--------------------------|-----------------| |--------------------------|-------\--------| |--------------------------|--12p0--\-------| |--4--5--4--5--4--5--4--5--|---------\------| |--2--3--2--3--2--3--2--3--|----------\-----| |--------------------------|---------0-\/---| with trem bar solo 2 tempo = 204 (over pre bridge riff #2) /-3--\/-3--\ /-3--\ /--4---\ |----------------|------------14-12-|-15p12-12-17p12-12-15p14-12-17p15-12-| |----------------|-----14---14------|-------------------------------------| |------------14--|---13---12--------|-------------------------------------| |-----14---13----|-12---------------|-------------------------------------| |---13---12------|------------------|-------------------------------------| |-12-------------|------------------|-------------------------------------| |-15p14-12-17p15-12-15p14-12-17p15-12-|-15p14-12-17p15-12-15p14-12-17p15-12-| |-------------------------------------|-------------------------------------| |-------------------------------------|-------------------------------------| |-------------------------------------|-------------------------------------| |-------------------------------------|-------------------------------------| |-------------------------------------|-------------------------------------| |-15p14-12-17p15-12-15p14-12-17p15-12-|-----------------|----------------------------| |-------------------------------------|--15b17--15b17---|--15b17-15b17-15b17--15b16--| |-------------------------------------|-----------------|----------------------------| |-------------------------------------|-----------------|----------------------------| |-------------------------------------|-----------------|----------------------------| |-------------------------------------|-----------------|----------------------------| |-12-----------12-----------|-12-----------12------------|-12------------12-----------| |---15p12--------15p12------|---15p12---------15p12------|---15p12---------15p12------| |--------14b16--------14b16-|--------14b16---------14b16-|---------14b16--------14b16-| |---------------------------|----------------------------|----------------------------| |---------------------------|----------------------------|----------------------------| |---------------------------|----------------------------|----------------------------| |-----------------------12-|-15p12-------------------------------| |-15p12------15p12---------|-------15-12----12-15p12-------------| |------14b16------14b16----|-------------14----------14-12----12-| |--------------------------|-------------------------------14----| |--------------------------|-------------------------------------| |--------------------------|-------------------------------------| |------------------------------|----------------------------| |------------------------------|----------------------------| |-14p12------------------------|-------------------------7--| |-------14-12------------------|------------7-9p7--7-9-9----| |-------------14-12-10---------|--------/9-------9----------| |-------------------------12\-|-/7--10---------------------| AH AH AH |--------------------19-19-19-|-22-19-19-19-19-19-19-19-22-19-19-19-19-19-19-19-19-| |-----------------------------|----------------------------------------------------| |-9b11--9b11--9b11\----------|----------------------------------------------------| |-----------------------------|----------------------------------------------------| |-----------------------------|----------------------------------------------------| |-----------------------------|----------------------------------------------------| |-22-19-19-19-19-19-19-19-22-19-19-19-19-19-19-19-| |-------------------------------------------------| |-------------------------------------------------| |-------------------------------------------------| |-------------------------------------------------| |-------------------------------------------------| |-22-19-19-19-19-19-19-19-22-19-19-19-19-19-19-19-|-22b24--22b24--r22--19--| |-------------------------------------------------|------------------------| |-------------------------------------------------|------------------------| |-------------------------------------------------|------------------------| |-------------------------------------------------|------------------------| |-------------------------------------------------|------------------------| |-22p19----19----------------------19-|-22p19----------------------------19-| |-------22----22-19-22p19----19-22----|-------22-19\18-19-22p19----19-22---| |-------------------------21----------|-------------------------21----------| |-------------------------------------|-------------------------------------| |-------------------------------------|-------------------------------------| |-------------------------------------|-------------------------------------| |-22p19-------------------------------|------------------------------12--| |-------22-19\18-19-22p19-------------|-------------------------/14-----| |-------------------------21-19----19-|--21b24--21b23--21b22\-----------| |-------------------------------21----|----------------------------------| |-------------------------------------|----------------------------------| |-------------------------------------|----------------------------------| |-15p12-14p12----12-15p2-14p12----12-|-15p12-14p12----12-15p12-14p12-11--| |-------------14---------------14----|-------------14--------------------| |------------------------------------|-----------------------------------| |------------------------------------|-----------------------------------| |------------------------------------|-----------------------------------| |------------------------------------|-----------------------------------| T T T T T T T T |-15-19p12h15p12-19p15p12-19p15p12-19p15p12-|-19p15p12-19p15p12-19p15p12-19p15p12-| |-------------------------------------------|-------------------------------------| |-------------------------------------------|-------------------------------------| |-------------------------------------------|-------------------------------------| |-------------------------------------------|-------------------------------------| |-------------------------------------------|-------------------------------------| |-17p14p0-17p14p0-17p14p0-17p14p0-|-17p14p0-17p14p0-17p14p0-17p14p0-| |---------------------------------|---------------------------------| |---------------------------------|---------------------------------| |---------------------------------|---------------------------------| |---------------------------------|---------------------------------| |---------------------------------|---------------------------------| |-22p19p0-22p19p0-22p19p0-22p19p0-|--22b24--22b24---|--22b24----|-r22------| |---------------------------------|-----------------|-----------|----------| |---------------------------------|-----------------|-----------|----------| |---------------------------------|-----------------|-----------|----------| |---------------------------------|-----------------|-----------|----------| |---------------------------------|-----------------|-----------|----------|

    лекарство в аптеке
    список лекарств






    О сайтеАккордыХит-парадПоискУроки ФорумыИщу песню
    ПрограммыСвежачок-сПодпискаСтатьи
    Яндекс.Метрика