Аккорды Король и Шут | Похороны панка (3) гитара табулатуры уроки тексты песен Король и Шут текст lyrics песня аккорды песни ноты нота электрогитара струна  
   А Б В Г Д Е Ж З И К Л М Н О П Р С Т У Ф Х Ч Ш Ы Э Ю Я       Разные песни
1-9 A B C D E F G H I J K L M N O P Q R S T U V W Y Z      Все исполнители in english

    



группа Король и Шут, Аккорды песни Похороны панка (3)

Продолжаем грести бабос на ботах в Telegram.
Только в этот раз есть вариант автоматизировать это дело, привлекая рефералов. Вы можете заработать если »

Группа: Король и Шут - другие аккорды (277),   о группе (10 статей),   диски (9),   фотографии (68)
Аккорды песни: Похороны панка (3)
Просмотров: 1868
Подобрал: FaUsT




    
Похороны Панка 
Intro 
--------------------------- 
---------3-----------5---- 
------------5-----------7- 
--------------------------- 
--6--7--------7--8------- 
play 2 times 
A5 F5 G5 G5 
--------------------------- 
---------3-----------5---- 
------------5-----------7- 
--------------------------- 
--6--7--------7--8------- 
play 2 times with chords 
play theme 2 times(2 guitars) chords with P.M. 
Verse: A5 F5 G5 G5 
Two lines of the lyrics are played fast with P.M., 
third line slower with P.M. and fourth  
line fast without P.M. 
then play riff A 
riff A: 
F5 
--------------------------------- 
--------------------------------- 
-9--7--9--7--9--7--9--7--5--7- 
--------------------------------- 
--------------------------------- 
--------------------------------- 
pre-chorus: 
Same chords but in another rhytme. 
rhy fig: 
*+*+*****(*-pick, +-mute) 
chorus: 
play the same chords in fast rhytme. 
riff B 
----------------------------- 
----------------------------- 
----------------------------- 
----------------------------- 
-7--5--3--0----------------- 
solo 
----------------------------- 
----------------------------- 
----------------------------- 

Продолжаем грести бабос на ботах в Telegram.
Только в этот раз есть вариант автоматизировать это дело, привлекая рефералов. Вы можете заработать если »

----------5---------5------- -5\\7-7-7---5\\7-7-7--7----- play 6 times lyrics: А5 F5 G5 Тяжелый гроб несли к могиле, Крутого парня хоронили, Смеялись и шутили Над тупым его лицом. riffA pre chorus: Хэй-хэй, вся семья, Братья и друзья chorus: Парня провожали, Плакали и ржали, Водкой поливали, В рожу целовали, F5 хэй! Verse: Виновник этого парада Был не дурак: ушел как надо, И баба его рада, Что он ее не застрелил. Pre-chorus Chorus solo A5 G5 А он любил собаку, riffB Бабу, водку, драку, Main chords Слезы ненавидел, И, если б их увидел, Он бы разозлился, За наган схватился, F5 G5 И разревелся он бы сам, E5 A5 стреляя по слезам.

лекарство в аптеке
список лекарств

Купить решетку для мясорубки

Запчасти для электро мясорубок Ножи шнеки шестеренки

zip-kirov.ru

Купить Plants vs Zombies Garden Warfare 2

купить Plants vs Zombies Garden Warfare 2

ougame.ru








О сайтеАккордыХит-парадПоискУроки ФорумыИщу песню
ПрограммыСвежачок-сПодпискаСтатьи
Яндекс.Метрика