Табулатура Muse | New Born (2) гитара табулатуры уроки тексты песен Muse текст lyrics песня аккорды песни ноты нота электрогитара струна  
   А Б В Г Д Е Ж З И К Л М Н О П Р С Т У Ф Х Ч Ш Ы Э Ю Я       Разные песни
1-9 A B C D E F G H I J K L M N O P Q R S T U V W Y Z      Все исполнители in english

    



группа Muse, Табулатура песни New Born (2)

Группа: Muse - другие аккорды (28),   о группе (3 статей),   диски (3),   фотографии (45)
Табулатура песни: New Born (2)
Просмотров: 2153
Подобрал: Сушняк (ripstar@mail.ru)




    
Спустить 6 струну до Ре
Intro/Verse1                                                         
E||--------7-----------7-----|--------7-----------7-----|
B||-----8-----8-----8-----8--|-----7-----7-----7-----7--|
G||--9-----------9-----------|--8-----------8-----------|
D||--------------------------|--------------------------|
A||--------------------------|--------------------------|
D||--------------------------|--------------------------|
                                                    
--------7-----------7-----|--------7-----------7-----|
-----8-----8-----8-----8--|-----7-----7-----7-----7--|
--9-----------9-----------|--8-----------8-----------|
--------------------------|--------------------------|
--------------------------|--------------------------|
--------------------------|--------------------------|
                                                      
--------7-----------7-----|--------8-----------8-----|
-----8-----8-----8-----8--|-----8-----8-----8-----8--|
--9-----------9-----------|--9-----------9-----------|
--------------------------|--------------------------|
--------------------------|--------------------------|
--------------------------|--------------------------|
                                                                                
--------7-----------7-----|--------7-----------7----|
-----8-----8-----8-----8--|-----7-----7-----7-----7-|
--7-----------7-----------|--8-----------8----------|
--------------------------|-------------------------|
--------------------------|-------------------------|
--------------------------|-------------------------|
Link it to the world
Link it to yourself
Stretch it like a birth squeeze
The love for what you hide
The bitterness inside
Is growing like the new born
When you\'ve seen, seen
Too much, too young, young
Soulless is everywhere
Riff A
|--------------------------|
|--------------------------|
|--------------------------|
|--------------------------|
|--------------------------|
|--2--2--2--2--5--2--5--6--|
                                                            
-----------------------------|------------------------------|
-----------------------------|------------------------------|
-----------------------------|------------------------------|
-----------------------------|------------------------------|
-----------------------------|------------------------------|
--7--7--7--7--10--7--10--11--|--12--12--12--12--0--0--3--4--|
                                                                           
--------------------------|--------------------------|---------------------|
--------------------------|--------------------------|---------------------|
--------------------------|--------------------------|---------------------|
--------------------------|--------------------------|---------------------|
--------------------------|--10--10--10----10--------|--8--------8----8----|
--5--5--5--5--9--9--9--9--|--10--10--10----10--------|--8--------8----8----|
                                                               
----------------------|
----------------------|
----------------------|
----------------------|
--9--9--9----9--------|
--9--9--9----9--------|
Verse2
|--7--7--7--7--7--7--7--7--|--7--7--7--7--7--7--7--7--|
|--8--8--8--8--8--8--8--8--|--7--7--7--7--7--7--7--7--|
|--9--9--9--9--9--9--9--9--|--8--8--8--8--8--8--8--8--|
|--------------------------|--------------------------|
|--------------------------|--------------------------|
|--------------------------|--------------------------|
                                                      
--7--7--7--7--7--7--7--7--|--7--7--7--7--7--7--7--7--|
--8--8--8--8--8--8--8--8--|--7--7--7--7--7--7--7--7--|
--9--9--9--9--9--9--9--9--|--8--8--8--8--8--8--8--8--|
--------------------------|--------------------------|
--------------------------|--------------------------|
--------------------------|--------------------------|
                                                      
--7--7--7--7--7--7--7--7--|--8--8--8--8--8--8--8--8--|
--8--8--8--8--8--8--8--8--|--8--8--8--8--8--8--8--8--|
--9--9--9--9--9--9--9--9--|--9--9--9--9--9--9--9--9--|
--------------------------|--------------------------|
--------------------------|--------------------------|
--------------------------|--------------------------|
                                                       
--7--7--7--7--7--7--7--7--|--7--7--7--7--7--7--7--7--|
--8--8--8--8--8--8--8--8--|--7--7--7--7--7--7--7--7--|
--7--7--7--7--7--7--7--7--|--8--8--8--8--8--8--8--8--|
--------------------------|--------------------------|
--------------------------|--------------------------|
--------------------------|--------------------------|
Hopeless time to roam
The distance to your home
Fades away to nowhere

Продолжаем грести бабос на ботах в Telegram.
Только в этот раз есть вариант автоматизировать это дело, привлекая рефералов. Вы можете заработать если »

How much are you worth? You can\'t come down to earth You\'re swelling up, you\'re unstoppable \'Cause you\'ve seen, seen Too much, too young, young Soulless is everywhere Chorus |-------------------|-------------------| |-------------------|--1----------------| |-------------------|--2----------------| |--2----------------|--2----------------| |--2----------------|-------------------| |--2----------------|-------------------| -------------------|-------------------|--0----------------|--1----------------| --3----------------|-------------------|--1----------------|--3----------------| --2----------------|-------------------|--0----------------|--3----------------| --0----------------|--5----------------|--2----------------|--3----------------| -------------------|--5----------------|--3----------------|--1----------------| -------------------|--5----------------|-------------------|-------------------| --2----------------| --4----------------| --4----------------| --4----------------| --2----------------| -------------------| Destroy the spineless Show me it\'s real Wasting our last chance To come away Just break the silence \'Cause I.m drifting away Away from you Verse3 |--7--7--7--7--7--7--7--7--|--7--7--7--7--7--7--7--7--| |--8--8--8--8--8--8--8--8--|--7--7--7--7--7--7--7--7--| |--9--9--9--9--9--9--9--9--|--8--8--8--8--8--8--8--8--| |--------------------------|--------------------------| |--------------------------|--------------------------| |--------------------------|--------------------------| --7--7--7--7--7--7--7--7--|--7--7--7--7--7--7--7--7--| --8--8--8--8--8--8--8--8--|--7--7--7--7--7--7--7--7--| --9--9--9--9--9--9--9--9--|--8--8--8--8--8--8--8--8--| --------------------------|--------------------------| --------------------------|--------------------------| --------------------------|--------------------------| --7--7--7--7--7--7--7--7--|--8--8--8--8--8--8--8--8--| --8--8--8--8--8--8--8--8--|--8--8--8--8--8--8--8--8--| --9--9--9--9--9--9--9--9--|--9--9--9--9--9--9--9--9--| --------------------------|--------------------------| --------------------------|--------------------------| --------------------------|--------------------------| --7--7--7--7--7--7--7--7--|--7--7--7--7--7--7--7--7--| --8--8--8--8--8--8--8--8--|--7--7--7--7--7--7--7--7--| --7--7--7--7--7--7--7--7--|--8--8--8--8--8--8--8--8--| --------------------------|--------------------------| --------------------------|--------------------------| --------------------------|--------------------------| Link it to the world Link it to yourself Stretch it like it\'s a birth squeeze And the love for what you hide And the bitterness inside Is growing like the new born When you\'ve seen, seen Too much, too young, young Soulless is everywhere Chorus |-------------------|-------------------| |-------------------|--1----------------| |-------------------|--2----------------| |--2----------------|--2----------------| |--2----------------|-------------------| |--2----------------|-------------------| -------------------|-------------------|--0----------------|--1----------------| --3----------------|-------------------|--1----------------|--3----------------| --2----------------|-------------------|--0----------------|--3----------------| --0----------------|--5----------------|--2----------------|--3----------------| -------------------|--5----------------|--3----------------|--1----------------| -------------------|--5----------------|-------------------|-------------------| --2----------------| --4----------------| --4----------------| --4----------------| --2----------------| -------------------| Destroy the spineless Show me it\'s real Wasting our last chance To come away Just break the silence \'Cause I.m drifting away Away from you








О сайтеАккордыХит-парадПоискУроки ФорумыИщу песню
ПрограммыСвежачок-сПодпискаСтатьи
Яндекс.Метрика