Аккорды Аквариум | Сонет гитара табулатуры уроки тексты песен Аквариум текст lyrics песня аккорды песни ноты нота электрогитара струна  
   А Б В Г Д Е Ж З И К Л М Н О П Р С Т У Ф Х Ч Ш Ы Э Ю Я       Разные песни
1-9 A B C D E F G H I J K L M N O P Q R S T U V W Y Z      Все исполнители in english

    



группа Аквариум, Аккорды песни Сонет

Продолжаем грести бабос на ботах в Telegram.
Только в этот раз есть вариант автоматизировать это дело, привлекая рефералов. Вы можете заработать если »

Группа: Аквариум - другие аккорды (421),   о группе (24 статей),   диски (42),   фотографии (43)
Аккорды песни: Сонет
Просмотров: 2088
Подобрал: IP (Synkgh@IP.net)




    

Intro (classic guitar):
   Em      Am     H7      Em          Em      Am     H7         Em
E|----------------------------------------------------------------------------
H|-----0-0h1------------------------------------------------------------------
G|-0h2---------2--2----2--2--0------------------------------------------------
D|------------------------------------2-------2------1------2---2-------------
A|----------------------------------------------------------------------------
E|----------------------------------------------------------------------------
       Em       Am           H7   Em    Em       Am         H7             Em
E|--------------------------------------2--3--2--3----------------------------
H|-----0----0-0h1----0--1--1s4--4-5--------------------1--0h1p0---------------
G|-0-2------------------------------------------------------------2--0--------
D|----------------------------------------------------------------------1--2--
A|----------------------------------------------------------------------------
E|----------------------------------------------------------------------------
          Em     C          Am H7
Служенье муз не терпит колеса,
        Em        C          Am   Hm
А если терпит - право, не случайно.
          Am     H7       Em   G
Но я вам не раскрою этой тайны,
          Am   C          H7
А лучше брошу ногу в небеса.
Ты возражаешь мне, проклятая роса;
Ты видишь суть в объятии трамвайном;
Но все равно не верю я комбайну -
Ведь он не различает голоса.
  C       Am    C     Am      Hm
Таинственный бокал похож на крюк,

Продолжаем грести бабос на ботах в Telegram.
Только в этот раз есть вариант автоматизировать это дело, привлекая рефералов. Вы можете заработать если »

C Am C Am Hm Вокруг него рассыпаны алмазы ... Am H7 Em G Не целовался я с тобой не разу, Am C H7 Мой омерзительный безногий друг. C D G Em Упреки я приму - но лишь тогда, Am H7 Em Когда в пакгаузе затеплится вода ... Outro (classic guitar): Em Am H7 Em Em Am H7 Em E|------------------------------------------------0--2--3--2--2h3-2-0--------- H|-----0-0h1---0--1----1--0h1p0--0-0--5--5-4-5-------------------------------- G|-0h2------------------------------------------------------------------------ D|---------------------------------------------------------------------------- A|---------------------------------------------------------------------------- E|---------------------------------------------------------------------------- Em Am H7 Em Em Am H7 Em E|-0-2-3s7--7--7-7--5--2--3--2---0--0--0---0--2--2s3--3--2--0h2p0--0---------- H|-------------------------------------------------------------------5-4-4-4h5 G|---------------------------------------------------------------------------- D|---------------------------------------------------------------------------- A|---------------------------------------------------------------------------- E|----------------------------------------------------------------------------

найти лекарство
список лекарств






О сайтеАккордыХит-парадПоискУроки ФорумыИщу песню
ПрограммыСвежачок-сПодпискаСтатьи
Яндекс.Метрика