Табулатура Manowar | Blood Of The Kings гитара табулатуры уроки тексты песен Manowar текст lyrics песня аккорды песни ноты нота электрогитара струна  
   А Б В Г Д Е Ж З И К Л М Н О П Р С Т У Ф Х Ч Ш Ы Э Ю Я       Разные песни
1-9 A B C D E F G H I J K L M N O P Q R S T U V W Y Z      Все исполнители in english

    



группа Manowar, Табулатура песни Blood Of The Kings

Продолжаем грести бабос на ботах в Telegram.
Только в этот раз есть вариант автоматизировать это дело, привлекая рефералов. Вы можете заработать если »

Группа: Manowar - другие аккорды (25),   о группе (16 статей),   диски (15),   фотографии (37)
Табулатура песни: Blood Of The Kings
Просмотров: 1698
Прислал: Соломон Каин (solomonkain@akkords.ru)




    
e-----------------------------------------------------------------------------
b-----------------------------------------------------------------------------
g-----------------------------------------------------------------------------
d-----9-----7-----5-----4-----9-------9-------9---9-------9------9------------
a-----7-----5-----3-----2-----7-------7-------7---7-------7------7------------
e-0-0---0-0---0-0---0-0---------0-0-0---0-0-0-------0-0-0---0-0-0-------------
e-----------------------------------------------------------------------------
b-----------------------------------------------------------------------------
g-----------------------------------------------------------------------------
d-----9-----7-----5-----4-----2-----------------------------------------------
a-----7-----5-----3-----2-----0-----5-----4-----2-----4-----------------------
e-0-0---0-0---0-0---0-0---0-0---0-0-3-0-0-2-0-0-0-0-0-2-2-2-2-2-2-2-2---------
if u want the bass run here mail me coz i think i worked it out!
riff 1
e-------------------------------------------------------------------
b-------------------------------------------------------------------
g-------------------------------------------------------------------
d-9-----9-----9--9-----9-----9---9-----9-----9--9-----9------9------
a-7-----7-----7--7-----7-----7---7-----7-----7--7-----7------7------
e---000---000------000---000-------000---000------000----000--------
Brothers the battles raging choose your side
E5		     E5                 D5

Продолжаем грести бабос на ботах в Telegram.
Только в этот раз есть вариант автоматизировать это дело, привлекая рефералов. Вы можете заработать если »

Sing with us the Battle hymns into glory ride E5 E5 D5 e----------------------------------- b----------------------------------- g----------------------------------- d-----9----7----5----4-------------- a-----7----5----3----2-------------- e-0-0------------------------------- Hail to england the sign of the hammers our guide E5 E5 D5 Forever were fighting the world Side by side E5 E5 D5 e------------------------------------------------------------------ b------------------------------------------------------------------ g------------------------------------------------------------------ d------9--7--5--4--2----------------------------------------------- a------7--5--3--2--0--5--4--2-------------------------------------- e-0-0-----------------3--2--0-------------------------------------- call upon riff 1 again On A crusade to the world we bring FOUR KINGS OF METAL FOUR METAL KINGS riff 1 E5 F#5 D5 E5 so forth and that little bit at the very end goes something like A B C A B C until it gets really fast (get those chops up to scratch!)

лекарство в аптеке
список лекарств






О сайтеАккордыХит-парадПоискУроки ФорумыИщу песню
ПрограммыСвежачок-сПодпискаСтатьи
Яндекс.Метрика