Табулатура Manowar | Battle Hymn гитара табулатуры уроки тексты песен Manowar текст lyrics песня аккорды песни ноты нота электрогитара струна  
   А Б В Г Д Е Ж З И К Л М Н О П Р С Т У Ф Х Ч Ш Ы Э Ю Я       Разные песни
1-9 A B C D E F G H I J K L M N O P Q R S T U V W Y Z      Все исполнители in english

    



группа Manowar, Табулатура песни Battle Hymn

Продолжаем грести бабос на ботах в Telegram.
Только в этот раз есть вариант автоматизировать это дело, привлекая рефералов. Вы можете заработать если »

Группа: Manowar - другие аккорды (25),   о группе (16 статей),   диски (15),   фотографии (37)
Табулатура песни: Battle Hymn
Просмотров: 1282
Прислал: Соломон Каин (solomonkain@akkords.ru)




    
1   2   3   4     1    2    3   4     1   2   3   4     1   2   3   4
|---0-3-0-5-0-7-0-|-12-0-10-0-7-----7-|-5-------5-----5-|-3-----3---------|
|-----------------|-------------5--5--|---3---3---3--3--|---1--1--7-----7-|
|-----------------|---------------4---|-----2-------2---|-----0-----4--4--|
|-----------------|-------------------|-----------------|-------------4---|
|-----------------|-------------------|-----------------|-----------------|
|-0---------------|-------------------|-----------------|-----------------|
(Bass & Elec guitar)
  
  1   2   3   4     1       2       3       4
|---0-3-0-5-0-7-0-|-12--0---10--0---5---------5-----|
|-----------------|---------------------3---3---3---|
|-----------------|-----------------------2-------2-|
|-----------------|---------------------------------|
|-----------------|---------------------------------|
|-0---------------|---------------------------------|
  1       2       3       4         1       2       3       4
|-5---------5-----5-------5-------|-3---------3---------------------|
|-----3---3---3-----3---3---3---3-|-----1---1---1---7-------------7-|
|-------2-------2-----2-------2---|-------0-------0-----4------4----|
|---------------------------------|-------------------------4-------|
|---------------------------------|---------------------------------|
|---------------------------------|---------------------------------|
                                  |Riff 1: (Electric guitar)
                                  |-7-------------------------------|
                                  |----------10-----7-b(8)r---------|
                                  |--------------------------7------|
                                  |---------------------------------|
                                  |---------------------------------|
                                  |---------------------------------|
    
  1   2   3   4     1       2       3       4
|---0-3-0-5-0-7-0-|-12--0---10--0---7-------7-------|
|-----------------|-------------------5---5---5---5-|
|-----------------|---------------------4-------4---|
|-----------------|---------------------------------|
|-----------------|---------------------------------|
|-0---------------|---------------------------------|
                                   Riff 1
  1       2       3       4         1       2       3       4
|-5-------5-------5-555-----5-----|-3-------3-----------------------|
|---3---3---3---3-------3-----3---|---1---1---1---1-7-------7-------|
|-----2-------2-----------2-----2-|-----0-------0-----4---4---4---4-|
|---------------------------------|---------------------4-------4---|
|---------------------------------|---------------------------------|
|---------------------------------|---------------------------------|
     (Bass & Electric guitar)                           Riff1 (First 3 notes
                                                                  only)
  1   2   3   4     1    2    3   4     1   2   3   4     1   2   3   4
|---0-3-0-5-0-7-0-|-12-0-10-0-7-----7-|-5-------5-----5-|-3-----3---------|
|-----------------|-------------5--5--|---3---3---3--3--|---1--1--7-----7-|
|-----------------|---------------4---|-----2-------2---|-----0-----4--4--|
|-----------------|-------------------|-----------------|-------------4---|
|-----------------|-------------------|-----------------|-----------------|
|-0---------------|-------------------|-----------------|-----------------|
  1     2     3     4       1     2     3     4       1     2     3     4
|-------------------------|-------------------------|-------------------------|
|-------------6-----------|-------------5-----------|-------------------------|
|-9-----------9-----------|-------------5-----------|-------------4-----------|
|-9-----------9-----------|-5-5-5-5-5-5-5-----------|-5-----------5-----------|
|-7-----------------------|-3-3-3-3-3-3-3-----------|-5-----------5-----------|
|-0-----------------------|-------------------------|-3-----------------------|

Продолжаем грести бабос на ботах в Telegram.
Только в этот раз есть вариант автоматизировать это дело, привлекая рефералов. Вы можете заработать если »

1 2 3 4 Guitar 2 |------------10----11-----| |-------------------------| |-7-----------------------| |-7-----------7-----8-----| |-5-----------5-----6-----| |-------------------------| 1 2 3 4 1 2 3 4 1 2 3 4 |-------------------------|-------------------------|-------------------------| |-------------------------|-------------------------|-------------------------| |-------9-----------9-----|-5-----7-----9-----5-----|-------9-----------9-----| |-9-9-9-9-----9-9-9-9-----|-5-----7-----9-----5-----|-9-9-9-9-----9-9-9-9-----| |-7-7-7-7-----7-7-7-7-----|-3-----5-----9-----3-----|-7-7-7-7-----7-7-7-7-----| |-------------------------|-------------------------|-------------------------| 1 2 3 4 1 2 3 4 1 2 3 4 |-------------------------|-------------------------|-------------------------| |-------------------------|-------------------------|-------------------------| |-5-----7-----9-----------|-------9-----------9-----|-5-----7-----9-----5-----| |-5-----7-----9-----------|-9-9-9-9-----9-9-9-9-----|-5-----7-----9-----5-----| |-3-----5-----7-----------|-7-7-7-7-----7-7-7-7-----|-3-----5-----9-----3-----| |-------------------------|-------------------------|-------------------------| 1 2 3 4 1 2 3 4 1 2 3 4 |-------------------------|-------------------------|-------------------------| |-------------------------|-------------------------|-------------------------| |-------9-----------9-----|-5-----7-----9-----5-----|-4-----------------------| |-9-9-9-9-----9-9-9-9-----|-5-----7-----9-----5-----|-4-----------------------| |-7-7-7-7-----7-7-7-7-----|-3-----5-----9-----3-----|-2-----------------------| |-------------------------|-------------------------|-------------------------| 1 2 3 4 1 2 3 4 1 2 3 4 1 2 3 4 |-----8-----8-----|-----8-------8---|-----8-----8-----|-----8--6-------| |-6-------6-----6-|-----------------|-----------------|-----------------| |-----------------|-9-------9-----9-|-8-------8-----8-|-7-------------7-| |-----------------|-----------------|-----------------|-----------------| |-----------------|-----------------|-----------------|-----------------| |-----------------|-----------------|-----------------|-----------------| 1 2 3 4 1 2 3 4 1 2 3 4 1 2 3 4 |-----6-----6-----|-5---------3--/8-|-----3---3-5-353---|-----------------8-| |-----------------|-6-----6---------|-------------------|-6-------6---6/8---| |-6-------6-------|-5---5-----------|-5-----5---------5-|-----5-5---5-------| |-----------------|-----------------|-------------------|-------------------| |-----------------|-----------------|-------------------|-------------------| |-----------------|-----------------|-------------------|-------------------| 1 2 3 4 1 2 3 4 1 2 3 4 1 2 3 4 |-----10----10----|-----10------10--|-----10----10-----|-----10----------| |/8-------8-----8-|-7-------7-----7-|------------------|-----------------| |-----------------|-----------------|-10------10----10-|-9-------------9-| |-----------------|-----------------|------------------|-----------------| |-----------------|-----------------|------------------|-----------------| |-----------------|-----------------|------------------|-----------------| 1 2 3 4 1 2 3 4 1 2 3 4 1 2 3 4 |-----8-----8-----|-7---------5/10--|-----5---5-7-575-|-----------------| |-----------------|-8-----8---------|-----------------|-8---------------| |-8-------8-------|-7---7-----------|-7-----7---------|-----------------| |-----------------|-----------------|-----------------|-----------------| |-----------------|-----------------|-----------------|-----------------| |-----------------|-----------------|-----------------|-----------------|

найти лекарство
список лекарств






О сайтеАккордыХит-парадПоискУроки ФорумыИщу песню
ПрограммыСвежачок-сПодпискаСтатьи
Яндекс.Метрика