Аккорды Король и Шут | Медведь (8) гитара табулатуры уроки тексты песен Король и Шут текст lyrics песня аккорды песни ноты нота электрогитара струна  
   А Б В Г Д Е Ж З И К Л М Н О П Р С Т У Ф Х Ч Ш Ы Э Ю Я       Разные песни
1-9 A B C D E F G H I J K L M N O P Q R S T U V W Y Z      Все исполнители in english

    



группа Король и Шут, Аккорды песни Медведь (8)

Продолжаем грести бабос на ботах в Telegram.
Только в этот раз есть вариант автоматизировать это дело, привлекая рефералов. Вы можете заработать если »

Группа: Король и Шут - другие аккорды (277),   о группе (10 статей),   диски (9),   фотографии (68)
Аккорды песни: Медведь (8)
Просмотров: 3810
Подобрал: devils2003 (slither_@freemail.ru)




    
проигрыш в песне играется на 2-х гитарах.
1 гитара:
F [133211]
G [355433]

2 гитара:
*F [033210]
*G [055430]
потом соло 2 гитара:
  *F                                         *G
e|------------0------------0---------------------0-----------         }
h|---------------1------3-----3---------------3----3---------         }
g|------------------2----------------------4----------4------         }- 2 раза
d|-----3-------------------------------------------------5---         }
a|---3--------------------------------5----------------------         }
e|-----------------------------------------------------------         }

соло после первого куплета:
e|-------------------------------------------------------------------------------------------------
h|-------------------------------------------------------------------------------3------0------1---
g|-------------------------------------------------------------------------------------------------
d|-------------2----9--7--5-----------------------------2----9--7--5-------------------------------
a|---2/5---3--------------------3---2----------------3-----------------3---2-----2------0------0---
e|----------------------------------------1/3--2--1------------------------------------------------
e|--------------------------------------------------------------------------------------
h|--------------------------------------------------------------------------------------
g|----------------------------------------------------------------------------------0---
d|------2----9--7--5---------------------------2----9--7--5-----------------------------
a|---3------------------3---2----------------3------------------3---2-------------------
e|--------------------------------1/3--2--1-------------------------------3----2----0---
все аккорды играть с барре
 Em      Hm    C       G
 Я жив покуда, я верю в чудо,
 Am        Em   C     H
 Но должен буду я умереть.
 Мне очень грустно, что в сердце пусто,
 Все мои чувства забрал медведь.
 

Продолжаем грести бабос на ботах в Telegram.
Только в этот раз есть вариант автоматизировать это дело, привлекая рефералов. Вы можете заработать если »

A# Am A# Am - здесь Am [002230] вобщем послушайте песню Моя судьба мне не подвластна, Любовь моя, как смерть опасна! C G Em Am Погаснет день, луна проснётся C G Em Am И снова зверь во мне очнется. F G Am Em Забрали чары души покой, G G Возник вопрос: \"Кто я такой?\" Проигрыш : Мой бедный разум дошёл не сразу До странной мысли: \"Я-человек!\" Колдун был пьяный, весьма упрямый, Его не видеть бы да не во век! Моя судьба мне не подвластна, Любовь моя, как смерть опасна! Я был медведем, проблем не знал, Зачем людских кровей я стал? И оборвётся тут, словно нить, Мой дар на двух ногах ходить! Проигрыш:

найти лекарство
список лекарств

Бизнес виза чехия

Бизнес в маленьком городе. Приглашаю на Школу Секреты Интернет-Бизнеса

consultexpert.cz








О сайтеАккордыХит-парадПоискУроки ФорумыИщу песню
ПрограммыСвежачок-сПодпискаСтатьи
Яндекс.Метрика