Табулатура Red Hot Chili Peppers | Californication (соло) гитара табулатуры уроки тексты песен Red Hot Chili Peppers текст lyrics песня аккорды песни ноты нота электрогитара струна  
   А Б В Г Д Е Ж З И К Л М Н О П Р С Т У Ф Х Ч Ш Ы Э Ю Я       Разные песни
1-9 A B C D E F G H I J K L M N O P Q R S T U V W Y Z      Все исполнители in english

    



группа Red Hot Chili Peppers, Табулатура песни Californication (соло)

Продолжаем грести бабос на ботах в Telegram.
Только в этот раз есть вариант автоматизировать это дело, привлекая рефералов. Вы можете заработать если »

Группа: Red Hot Chili Peppers - другие аккорды (395),   о группе (3 статей),   диски (15),   фотографии (113)
Табулатура песни: Californication (соло)
Просмотров: 7025
Подобрал: Бомж(из группы БОМЖА (bich26@yandex.ru)




    
E|------9-------------9-------------------------------------------|
H|--10------5b/7---10------9b\\7---7-7p5------------5-7/10---------|
G|-------------------------------------(6)-6-6--4-6-------7-6-----|
D|----------------------------------------------------------------|
A|----------------------------------------------------------------|
E|----------------------------------------------------------------|
E|------9--12-14-------9--12-16-14------16-15-13-11-13-11-9-10-9--|
H|--10-------------10---------------------------------------------|
G|----------------------------------------------------------------|
D|----------------------------------------------------------------|
A|----------------------------------------------------------------|

Продолжаем грести бабос на ботах в Telegram.
Только в этот раз есть вариант автоматизировать это дело, привлекая рефералов. Вы можете заработать если »

E|----------------------------------------------------------------| E|-9b—-9b--9b-12-9-15/16-16-15-13-11-13-11--12-12-10-10-9---------| H|--------------------------------------------------------10------| G|----------------------------------------------------------------| D|----------------------------------------------------------------| A|----------------------------------------------------------------| E|----------------------------------------------------------------| Соло вроде точное но если вы найдёте ошибки пишите на адрес bich26@yandex.ru

искать в аптеке
список лекарств






О сайтеАккордыХит-парадПоискУроки ФорумыИщу песню
ПрограммыСвежачок-сПодпискаСтатьи
Яндекс.Метрика