Табулатура Король и Шут | Коктейль Молотова гитара табулатуры уроки тексты песен Король и Шут текст lyrics песня аккорды песни ноты нота электрогитара струна  
   А Б В Г Д Е Ж З И К Л М Н О П Р С Т У Ф Х Ч Ш Ы Э Ю Я       Разные песни
1-9 A B C D E F G H I J K L M N O P Q R S T U V W Y Z      Все исполнители in english

    



группа Король и Шут, Табулатура песни Коктейль Молотова

Продолжаем грести бабос на ботах в Telegram.
Только в этот раз есть вариант автоматизировать это дело, привлекая рефералов. Вы можете заработать если »

Группа: Король и Шут - другие аккорды (277),   о группе (10 статей),   диски (9),   фотографии (68)
Табулатура песни: Коктейль Молотова
Просмотров: 4362
Подобрал: Al




    
\"КОКТЕЙЛЬ МОЛОТОВА\"
-------------------
Подбор by Ignatov Alexander 
\\P.S. Punk и Rock&Roll -это круто!!!        
 
E|------------------------------------------|играется 2 раза
B|------------------------------------------|
G|------------------------------------------|
D|----------------0-------------------------|
A|--------------2---2--1--------------------|
E|--0-0-0--3-5------------2t3-3-3-3-3-3-----|

E|---------------------------------------------------------------|играется 4 раза
B|---------------------------------------------------------------|
G|---------------------------------------------------------------|
D|---------------------------------------------------------------|
A|-2--5--7--9--12--9--8-----------------------4-4h5-5h7-7--------|
E|-0--3--5--7--10--7--6---2-3-2-3-2-3-2--5-5---------------------|

E|---------------|
B|---------------|
G|---------------|
D|---------------|
A|---------------|
E|---------------|
  играется 4 раза 
E|----------------------------------------------------------------------------------| 
B|----------------------------------------------------------------------------------|
G|----------------------------------------------------------------------------------|
D|------------------4---6--6--7---4---------------------4---------------------------|
A|----------0------------------------------------0------------------------3---------|
E|---7--5------7------------------------7---5-------7--------4--4---5---------------|

  2 раза (не совсем точно, но похоже)
E|----------------------------------------------------------------------------------| 
B|----------------------------------------------------------------------------------| 
G|----------------------------------------------------------------------------------|
D|----------------------------------------------------------------------------------|

Продолжаем грести бабос на ботах в Telegram.
Только в этот раз есть вариант автоматизировать это дело, привлекая рефералов. Вы можете заработать если »

A|------------------------2--1--1--0----------------------------2--1--1--0--0-------| E|---0-0---3--0--5---3-------------------0-0---3--0--5---3--------------------------| 1 раз E|----------------------------------------------------------------------------------| B|----------------------------------------------------------------------------------| G|----------------------------------------------------------------------------------| D|-----------------------2--1--1--0------------------------2--1--1--0--0------------| A|---0-0---3--0--5---3-----------------0-0---3--0--5---3----------------------------| E|----------------------------------------------------------------------------------| 1 раз E|----------------------------------------------------------------------------------| B|----------------------------------------------------------------------------------| G|----------------------------------------------------------------------------------| D|----------------------------------------------------------------------------------| A|-----------------------2--1--1--0------------------------2--1--1--0--0------------| E|---0-0---3---5---3-------------------0-0---3---5---3------------------------------| басовая партия E|--------------|-------------|---------------|--------------|----------------| B|--------------|-------------|---------------|--------------|----------------| G|--------------|-------------|---------------|--------------|----------------| D|--------------|-------------|---------------|--------------|----------------| A|--------------|--7----7-----|---------------|--7----7------|----------------| E|--0--6---0--6-|----6----6---|--0--6---0--6--|----6----6----|-0---6---0---6--| сколько раз играть каждую ноту не указываю, думаю сами разберётесь затем обыгрываются вот эти 2 рифа E|----------------------------------------| B|----------------------------------------| G|---9------------------3-----------------| D|---9------------------3-----------------| A|---7------------------1-----------------| E|----------------------------------------|

найти лекарство
список лекарств

Автостекло на иномарки

Ищите автостекло. Звоните оно у нас есть. Замена, ремонт трещин, сколов

autolineufa.ru








О сайтеАккордыХит-парадПоискУроки ФорумыИщу песню
ПрограммыСвежачок-сПодпискаСтатьи
Яндекс.Метрика