Табулатура Mark Knopfler | Metroland гитара табулатуры уроки тексты песен Mark Knopfler текст lyrics песня аккорды песни ноты нота электрогитара струна  
   А Б В Г Д Е Ж З И К Л М Н О П Р С Т У Ф Х Ч Ш Ы Э Ю Я       Разные песни
1-9 A B C D E F G H I J K L M N O P Q R S T U V W Y Z      Все исполнители

    



группа Mark Knopfler, Табулатура песни Metroland

Группа: Mark Knopfler - другие аккорды (43),   об исполнителе (1 статей),   диски (11),   фотографии (8)
Табулатура песни: Metroland
Просмотров: 1007
Прислал: String




    
Вообще-то это партия саксофона, но на электрогитаре с овердрайвом получается похоже:


E||------------------|------------------|------------------|------------------|
B||------------------|------------------|------------------|------------------|
G||------------------|------------------|------------------|------------------|
D||------------------|------------------|------------------|------------------|
A||------------------|------------------|------------------|------------------|
E||------------------|------------------|------------------|------------------|


                                                                            
------------------|------------------|------------------|------------------|
------------------|------------------|------------------|------------------|
------------------|------------------|------------------|------------------|
------------------|------------------|------------------|------------------|
------------------|------------------|------------------|------------------|
------------------|------------------|------------------|------------------|


                                                                          
------3----3-----5--7--|---7---7----7--8--7--5----|----3--7--3--0--------|
-----------------------|--------------------------|----------------------|
-----------------------|--------------------------|----------------------|
-----------------------|--------------------------|----------------------|
-----------------------|--------------------------|----------------------|
-----------------------|--------------------------|----------------------|


                                                                              
-------3---3---3--5--7--|--7----7---7--12--8--------|----------7---5------3--|
------------------------|---------------------10----|----10--8---------------|
------------------------|---------------------------|------------------------|
------------------------|---------------------------|------------------------|
------------------------|---------------------------|------------------------|
------------------------|---------------------------|------------------------|


                                                               
--7--10--12------12--10--14--|--15----15----15--14------12----|
-----------------------------|----------------------15--------|
-----------------------------|--------------------------------|
-----------------------------|--------------------------------|
-----------------------------|--------------------------------|
-----------------------------|--------------------------------|


                                                          
--------10----------------|------------------------------|
----12------12--10--------|-----------------------10-12--|
--------------------------|------12----12----12----------|
--------------------------|------------------------------|
--------------------------|------------------------------|
--------------------------|------------------------------|


                                                               
---------------------------------|----------------------------|
---12---12---10-12-13-12---10----|---11-12--10----------------|
---------------------------------|--------------12--12--------|
---------------------------------|----------------------------|
---------------------------------|----------------------------|
---------------------------------|----------------------------|


                                                                             
------------------|-------------------|------------------|------------------|
------------------|-------------------|------------------|------------------|
------------------|-------------------|------------------|------------------|
------------------|-------------------|------------------|------------------|
------------------|-------------------|------------------|------------------|
------------------|-------------------|------------------|------------------|


                                                                            
------------------|------------------|------------------|------------------|
------------------|------------------|------------------|------------------|
------------------|------------------|------------------|------------------|
------------------|------------------|------------------|------------------|
------------------|------------------|------------------|------------------|
------------------|------------------|------------------|------------------|


                                                                             
-------3----3---3--5--7--|---7----7---7---8-7---5----|----3--7--3--0--------|
-------------------------|---------------------------|----------------------|
-------------------------|---------------------------|----------------------|
-------------------------|---------------------------|----------------------|
-------------------------|---------------------------|----------------------|
-------------------------|---------------------------|----------------------|


                                                                               
------3----3----3-5--7--|--7----7----7--12--8--------|-----------7--5------3--|
------------------------|----------------------10----|----10--8---------------|
------------------------|----------------------------|------------------------|
------------------------|----------------------------|------------------------|
------------------------|----------------------------|------------------------|
------------------------|----------------------------|------------------------|


                                                                   
--7--10--12----12----12--10--14--|--15----15----15--14------12----|
---------------------------------|----------------------15--------|
---------------------------------|--------------------------------|
---------------------------------|--------------------------------|
---------------------------------|--------------------------------|
---------------------------------|--------------------------------|


                                                          
--------10----------------|------------------------------|
----12------12--10--------|-----------------------10-12--|
--------------------------|------12----12----12----------|
--------------------------|------------------------------|
--------------------------|------------------------------|
--------------------------|------------------------------|


                                                                                
---------------------------------|--------------------------|------------------|
---12---12---10-12-13-12---10----|----11--10----------------|------------------|
---------------------------------|----11------12--12--------|------------------|
---------------------------------|--------------------------|------------------|
---------------------------------|--------------------------|------------------|
---------------------------------|--------------------------|------------------|


                                                                            
------------------|------------------|------------------|------------------|
------------------|------------------|------------------|------------------|
------------------|------------------|------------------|------------------|
------------------|------------------|------------------|------------------|
------------------|------------------|------------------|------------------|
------------------|------------------|------------------|------------------|


                                                                            
------------------|------------------|------------------|------------------|
------------------|------------------|------------------|------------------|
------------------|------------------|------------------|------------------|
------------------|------------------|------------------|------------------|
------------------|------------------|------------------|------------------|
------------------|------------------|------------------|------------------|


                    
------------------||
------------------||
------------------||
------------------||
------------------||
------------------||
    

Гостиничный энергосберегающий выключатель
На картах Mifare, большой ток. В наличии
hsu.systems







О сайтеАккордыХит-парадПоискУроки ФорумыИщу песню
ПрограммыСвежачок-сПодпискаСтатьи
Яндекс.Метрика