Табулатура System Of A Down | Shame гитара табулатуры уроки тексты песен System Of A Down текст lyrics песня аккорды песни ноты нота электрогитара струна  
   А Б В Г Д Е Ж З И К Л М Н О П Р С Т У Ф Х Ч Ш Ы Э Ю Я       Разные песни
1-9 A B C D E F G H I J K L M N O P Q R S T U V W Y Z      Все исполнители in english

    



группа System Of A Down, Табулатура песни Shame

Группа: System Of A Down - другие аккорды (73),   диски (8),   фотографии (22)
Табулатура песни: Shame
Просмотров: 1796
Прислал: Зиц (volodia_pur@mail.ru)




    
Shame" System Of A Down
C Tuning(CGCFAD)

     RIFF 1: (Intro/Later Verse)
    |-----10---10----10----10---11----------|
    |--------------10----10-----------------|
    |---------------------------------------|
    |---------------------------------------|
    |---------------------------------------|
    |---------------------------------------|
     RIFF 2: (Verse)
    |----------------------------|------------------|
    |----------------------------|------------------|
    |----------------------------|------------------|
    |--------0-1-0-0-0-----------|-----0-0-0-0------|
    |--------0-1-0-0-0-----------|-----0-0-0-0------|
    |--------0-1-0-0-0-----------|-----0-0-0-0------|
     RIFF 3: (End First Verse)
    |--------10---10---10---10---11---------|
    |--------10---10---10---10--------------|
    |---------------------------------------|
    |---------------------------------------|

Продолжаем грести бабос на ботах в Telegram.
Только в этот раз есть вариант автоматизировать это дело, привлекая рефералов. Вы можете заработать если »

|---------------------------------------| |---------------------------------------| RIFF 4: (Chorus) |-----------------------------| |-----------------------------| |-----------------------------| |------0---0---0---0-1--------| |------0---0---0---0-1--------| |------0---0---0---0-1--------| RIFF 5: (Interlude) |-------------------------------------------------------------------------------| |-------------------------------------------------------------------------------| |-------------------------------------------------------------------------------| |---1414141414141414---1515151515151515---1717171717171717---1919191919191919---| |---1212121212121212---1313131313131313---1515151515151515---1717171717171717---| |-------------------------------------------------------------------------------|

www.mxtabs.net







О сайтеАккордыХит-парадПоискУроки ФорумыИщу песню
ПрограммыСвежачок-сПодпискаСтатьи
Яндекс.Метрика