Табулатура System Of A Down | Marmalade гитара табулатуры уроки тексты песен System Of A Down текст lyrics песня аккорды песни ноты нота электрогитара струна  
   А Б В Г Д Е Ж З И К Л М Н О П Р С Т У Ф Х Ч Ш Ы Э Ю Я       Разные песни
1-9 A B C D E F G H I J K L M N O P Q R S T U V W Y Z      Все исполнители in english

    



группа System Of A Down, Табулатура песни Marmalade

Группа: System Of A Down - другие аккорды (73),   диски (8),   фотографии (22)
Табулатура песни: Marmalade
Просмотров: 2540
Прислал: Зиц (volodia_pur@mail.ru)




    
Marmalade written by Daron Malkian of System of a Down

Intro									                           Intro Part 2/ Chorus
e---------------------------------------------------------------------------------
B----------------------------------------------------------------------------------
G-------------------------------------------------8-8-7-7-------------8-8-7-7------
D--5-5-8-5-(x4)--4-4-7-4-(x4)--and then---5-5-8-8--------(x2)-4-4-7-7--------(x2)--
A----------------------------------------------------------------------------------
D----------------------------------------------------------------------------------
Verse & Verse (Bass) *Can be used if covering at a higher point to sync with the bass
e-----------------------------------------------------------------------------------
B-----------------------------------------------------------------------------------
G-----------------------------------------------------------------------------------
D-Rest---7---Rest----5-------------Guitar chords played on the 7 on the bass riff---
A--------5-----------3--------------------------------------------------------------
D------------------------5-8-4-7--(x4)----------------------------------------------
Prechorus
e---------------------
B---------------------
G---(x16)-(x16)-------
D--5-----4------------
A--5-----4------------
D--5-----4------------
Interlude/End
e----------------------------------11-12-11----------11-12-11-----------
B-----------------------------------------------------------------------
G-----------------------------------------------------------------------
D----7-8-7--(x4)--7-8-7--(x4)---------------(x4)-----------------(x4)---

Продолжаем грести бабос на ботах в Telegram.
Только в этот раз есть вариант автоматизировать это дело, привлекая рефералов. Вы можете заработать если »

A--0---------------------------0---------------------------------------- D----------------0---------------------------------0-------------------- (Bass plays open, but guitar can too) Solo e------------------------------------------------------------------ B------------------------------------------------------------------ G--12--------14---------15---------11--------14---------15--------- D------(x8)-------(x4)-------(x4)------(x8)-------(x4)-------(x4)-- A-(10)------(12)-------(13)-------(9)--------(12)-------(13)------- D------------------------------------------------------------------ (Create Octaves with the Notes in ( )) Solo (Cont.) e----------------------------------------------------------------------------------------------- B-------10-10-11-11-10-10-13-13-11-11-10-10-11-11-----10-10-11-11-10-10-13-13-11-11-10-10-11-11- G-12-12------------------------------------------11-11------------------------------------------ D----------------------------------------------------------------------------------------------- A----------------------------------------------------------------------------------------------- D----------------------------------------------------------------------------------------------- e----------------------------------------------------------------------10-10-8-8-11-11-10/- B-------10-10-11-11-10-10-13-13-11-11-10-10-11-11-----10-10-11-11-10-10-------------------- G-12-12------------------------------------------11-11------------------------------------- D------------------------------------------------------------------------------------------ A------------------------------------------------------------------------------------------ D------------------------------------------------------------------------------------------

www.mxtabs.net







О сайтеАккордыХит-парадПоискУроки ФорумыИщу песню
ПрограммыСвежачок-сПодпискаСтатьи
Яндекс.Метрика