Аккорды NRM | Катуй-ратуй гитара табулатуры уроки тексты песен NRM текст lyrics песня аккорды песни ноты нота электрогитара струна  
   А Б В Г Д Е Ж З И К Л М Н О П Р С Т У Ф Х Ч Ш Ы Э Ю Я       Разные песни
1-9 A B C D E F G H I J K L M N O P Q R S T U V W Y Z      Все исполнители

    



группа NRM, Аккорды песни Катуй-ратуй

Группа: NRM - другие аккорды (11),   о группе (1 статей),   диски (10)
Аккорды песни: Катуй-ратуй
Просмотров: 2385
Прислал: METALLER (metaller@vovan.ru)




    
N.R.M. 
«Катуй-ратуй» 
(з альбому "Тры чарапахi")
Даслаў Тамаш Сулiма 
 
solo hitara:
(0:16)
e--------------------------|-------3--2-5-53-2--0-----|
h--3/5-3-------------------|--3/5--------------------3-|
g----------5-4--4-2--------|---------------------------|
d----------------------5-4-|---------------------------|
a--------------------------|---------------------------|
e--------------------------|---------------------------|
(0:31)
e--------------------------|-------3--2-5--------------|
h--3/5-3-------------------|--3/5----------3/5---------|
g----------5-4--4-2--------|--------------------5-4----|
d----------------------5-4-|---------------------------|
a--------------------------|---------------------------|
e--------------------------|---------------------------|
(0:45)
e--------------------------|-------3--2-5--3-7--5-8--7-10--8-12--10-14--12-15-|
h--3/5-3-------------------|--3/5---------------------------------------------|
g----------5-4--4-2--------|--------------------------------------------------|
d----------------------5-4-|--------------------------------------------------|
a--------------------------|--------------------------------------------------|
e--------------------------|--------------------------------------------------|
bas hitara:
intro:
g--------------------------|-----------------------------|
d--------------------------|-----------------------------|
a--2-2-2-2-2-0---0------2--|--2-2-2-2-2-0----0------(5)--|
e----------------3---0-----|---------------3----2----5---|
(0:16)
g-----------------------------------|
d-----------------------------------|
a----2---2---3---3---2---2---0---0--|
e--0---0---0---0---3---3---2---2----|
(3:22)
g--------------------|
d--------------------|
a-----3---------3----|
e--0-----3--3-(5)-3--|
Вось і насталі гэткія дні,
Нас разглядаюць вочы вайны.
Мы не належым самі сабе...

Продолжаем грести бабос на ботах в Telegram.
Только в этот раз есть вариант автоматизировать это дело, привлекая рефералов. Вы можете заработать если »

Ты не катуй мяне, Ратуй мяне, катуй мяне, Ратуй мяне, катуй мяне, Ратуй мяне, катуй мяне, Ратуй мяне E C G Не, не катуй мяне, не-не, D B H Ратуй мяне!.. Не, не катуй мяне, не-не, Ратуй мяне!.. Не, не катуй мяне, не-не, Ратуй мяне!.. Не, не катуй мяне, не-не, Ратуй мяне!.. Мы па дарозе разам ідзем, Скончыцца вецер, Скончыцца дзень, Што нам гавораць, не зразумець Ты не катуй мяне, Ратуй мяне, катуй мяне, Ратуй мяне, катуй мяне, Ратуй мяне, катуй мяне, Ратуй мяне Не, не катуй мяне... Немагчыма ратавацца, Шкадаваць няма аб чым. Нам няма куды хавацца... Катуй мяне, Ратуй мяне, катуй мяне, Ратуй мяне, катуй мяне, Ратуй мяне, катуй мяне, Ратуй мяне Што мы хацелі, нам не зрабіць. Свежых навінаў нам не здабыць. Мы будзем слухаць самі сябе... Ты не катуй мяне, Ратуй мяне, катуй мяне, Ратуй мяне, катуй мяне, Ратуй мяне, катуй мяне, Ратуй мяне Не, не катуй мяне... http://www.bakk.by.ru E-mail:bakk@tut.by








О сайтеАккордыХит-парадПоискУроки ФорумыИщу песню
ПрограммыСвежачок-сПодпискаСтатьи
Яндекс.Метрика