Аккорды NRM | Тры Чарапахі  (2) гитара табулатуры уроки тексты песен NRM текст lyrics песня аккорды песни ноты нота электрогитара струна  
   А Б В Г Д Е Ж З И К Л М Н О П Р С Т У Ф Х Ч Ш Ы Э Ю Я       Разные песни
1-9 A B C D E F G H I J K L M N O P Q R S T U V W Y Z      Все исполнители

    



группа NRM, Аккорды песни Тры Чарапахі (2)

Группа: NRM - другие аккорды (11),   о группе (1 статей),   диски (10)
Аккорды песни: Тры Чарапахі (2)
Просмотров: 2362
Подобрал: METALLER (metaller@vovan.ru)




    
N.R.M.       
          
                 "Тры Чарапахі"


*** - palm mute
Clear:  
|------------------------------------------------------------------------------------
|------------------------------------------------------------------------------------
|------------------------------------------------------------------------------------
|--5---------------------5----------------4/5----------------------------------------
|--3--5--5-5--7--1--1-1--3--5--5-5--5--5--2/3----------------------------------------
|-----3--3-5--5--3--3-3-----3--3-3--7--7---------------------------------------------
         * *        * *        * *     *

Distortion:
|------------------------------------------------------------------------------------
|------------------------------------------------------------------------------------
|------------------------------------------------------------------------------------
|--5-5-5--5--------------------------------5-5-5--5------------5-5-5--5--5-5-5--5----
|--3-3-3--3--5-5-5--5--7-7-7--7--3-3-3--3--3-3-3--3--5-5-5--5--3-3-3--3--3-3-3--3----
|------------3-3-3--3--5-5-5--5--1-1-1--1------------3-3-3--3------------------------

Продолжаем грести бабос на ботах в Telegram.
Только в этот раз есть вариант автоматизировать это дело, привлекая рефералов. Вы можете заработать если »

* * * * * * * * * * * * * * * * * * * * * * * * "...не было Галілея..." |------------------------------------------------------------------------------------ |------------------------------------------------------------------------------------ |----------------------------------5-5-5--5--5-5-5--5-------------------------------- |--5-----------5-5-5--5------------3-3-3--3--3-3-3--3-------------------------------- |--3--5--7--1--3-3-3--3--5-5-5--5---------------------------------------------------- |-----3--5--3------------3-3-3--3---------------------------------------------------- * * * * * * * * * * * * "...ні Леніна, ні Ленана..." MIDDLE SOLO: |--10/12--13-12------------------------------------12-------------------------------- |---------------12-13--10/12-13--12-13--12-13--12------------------------------------ |-----------------------------------------------------12----------------------------- |------------------------------------------------------------------------------------ |------------------------------------------------------------------------------------ |------------------------------------------------------------------------------------








О сайтеАккордыХит-парадПоискУроки ФорумыИщу песню
ПрограммыСвежачок-сПодпискаСтатьи
Яндекс.Метрика