Табулатура Mark Knopfler | What It Is гитара табулатуры уроки тексты песен Mark Knopfler текст lyrics песня аккорды песни ноты нота электрогитара струна  
   А Б В Г Д Е Ж З И К Л М Н О П Р С Т У Ф Х Ч Ш Ы Э Ю Я       Разные песни
1-9 A B C D E F G H I J K L M N O P Q R S T U V W Y Z      Все исполнители

    



группа Mark Knopfler, Табулатура песни What It Is

Группа: Mark Knopfler - другие аккорды (43),   об исполнителе (1 статей),   диски (11),   фотографии (8)
Табулатура песни: What It Is
Просмотров: 1576
Прислал: String




    
Соло-партия Марка Нопфлера

E||------|------|------|------|------|------|------|------|
B||------|------|------|------|------|------|------|------|
G||------|------|------|------|------|------|------|------|
D||------|------|------|------|------|------|------|------|
A||------|------|------|------|------|------|------|------|
E||------|------|------|------|------|------|------|------|


                                                                 
------------------------------------------|---------------------|
--10-10-10-------------10----10-10--------|---------------------|
--9h-11-11-11-11-9-----9h-11-11-9------9--|--11~-----9~---------|
-------------------11--------------11-----|---------------------|
------------------------------------------|---------------------|
------------------------------------------|---------------------|


                                                               
-----------------------------------------|--------------------|
--10-------------------10----------------|--------------------|
--9h-11-11-11-11h9-----9h-11-11-9-----9/-|--7-----------------|
-------------------11-------------11--9/-|--7------9----------|
-----------------------------------------|--------------------|
-----------------------------------------|--------------------|


                                                                  
-------------------------------------------|---------------------|
--10----10-10----------10----10-10-----10--|---------------------|
--9h-11-11-11-11h9-----9h-11-11-9----------|--11r-------9--------|
-------------------11--------------11------|---------------------|
-------------------------------------------|---------------------|
-------------------------------------------|---------------------|


                                                               
----------------------------------------|---------------------|
--10----10-10----------10-----10--------|---------------------|
--9h-11-11-11-11h9-----9h-11--9------9/-|--7------------------|
-------------------11------------11--9/-|--7-------9----------|
----------------------------------------|-------7-------------|
----------------------------------------|---------------------|


                                                                           
----------2----2--2--0--|-------0--0--0--0----0--|--2----2--2----2--2--0--|
----------2----2--2--0--|-------2--2--2--2----0--|--3----3--3----3--3--0--|
--2-------2----2--2--0--|--2----2--2--2--2----0--|--2----2--2----2--2--0--|
--4----4--4----4--4-----|--2----2--2--2--2-------|--0-------0----0--------|
--4----4----------------|--0----------0----------|------------------------|
--2----2----------------|------------------------|------------------------|


                                                                          
--2----2--2----------------|--------------------|-------0--0--0--0----0--|
--3----3--3------5----5----|--5/-7--------------|-------2--2--2--2----0--|
--2----2--2------4----4----|--4/-6--------------|--2----2--2--2--2----0--|
--0----0--0----------------|--------------------|--2----2--2--2--2-------|
---------------------------|--------------------|--0----------0----------|
---------------------------|--------------------|------------------------|


                                                                               
--2----2--2----2--2--0--|-----------------0--------|--------------------------|
--3----3--3----3--3--0--|--2----2--0-0-0--0--0-----|----------------------2h5/|
--2----2--2----2--2--0--|--2----2--0-0-1--1--1-----|----------2h4r--2---2-----|
--0-------0----0--------|--2----2--0-0-2--2--2--0--|--------2-----------------|
------------------------|--0-----------2--2--2--0--|--4-----------------------|
------------------------|--------------0-----0--0--|--2-----------------------|


                                                                  
--------------------|-----------2-----------|--------------------|
--7~-----5----------|----5b--------2--------|--------------------|
--------------------|-----------------2/-1--|--------------------|
--------------------|-----------------------|--4b-------2--------|
--------------------|-----------------------|--------------------|
--------------------|-----------------------|--------------------|


                                                                           
----------2----2--2--0--|-------0--0--0--0----0--|--2----2--2----2--2--0--|
----------2----2--2--0--|-------2--2--2--2----0--|--3----3--3----3--3--0--|
--2-------2----2--2--0--|--2----2--2--2--2----0--|--2----2--2----2--2--0--|
--4----4--4----4--4-----|--2----2--2--2--2-------|--0-------0----0--------|
--4----4----------------|--0----------0----------|------------------------|
--2----2----------------|------------------------|------------------------|


                                                                          
-----------------0--------|----------2----2--2--0--|-----------------0---|
--2----2--0-0-0--0--0-----|----------2----2--2--0--|--2----------2---0---|
--2----2--0-0-1--1--1-----|--2-------2----2--2--0--|--2----------2---1---|
--2----2--0-0-2--2--2--0--|--4----4--4----4--4-----|--2----------2---2---|
--0-----------2--2--2--0--|--4----4----------------|---------------------|
--------------0-----0--0--|--2----2----------------|---------------------|


                                                                 
-------------------|---------------------|-------------2--2--0--|
--3----------------|--2--------0---------|-------------3--3--0--|
--2----------------|--2--------1----2/---|--7----------2--2--0--|
--4----------------|--2--------2----2/---|--7----------0--0-----|
-------------------|---------------------|----------------------|
-------------------|---------------------|----------------------|


                                                                           
-------0--0----0--------|--2----2--2----2--2--0--|------------------------|
--2----2--2----2--2--0--|--3----3--3----3--3--0--|--2----2--0--0----0--0--|
--2----2--2----2--2--0--|--2----2--2----2--2--0--|--2----2--0--1----1--0--|
--2----2--2----2--2--0--|--0-------0----0--------|--2----2--0--2----2--0--|
--0----0----------0-----|------------------------|--0----0-----2----2-----|
------------------------|------------------------|-------------0----------|


                                                                      
-------------------------|--------------------|----------------------|
---------------------2h5/|--7~-----5----------|----5b-------5--2-----|
---------2h4r--2---2-----|--------------------|-------------------2--|
-------------------------|--------------------|----------------------|
--4----------------------|--------------------|----------------------|
--2----------------------|--------------------|----------------------|


                                                                          
--------------------|----------2----2--2--0--|-----------------5----4----|
--------------------|----------2----2--2--0--|--2----2--2-----------5----|
--------------------|--2-------2----2--2--0--|--2----2--2------6----4----|
--4b-------2--------|--4----4--4----4--4-----|--2----2--2----------------|
--------------------|--4----4----------------|--0----0--0----------------|
--------------------|--2----2----------------|---------------------------|


                                                                             
--2-----------------|----------------------------------|--------------------|
--3-----------------|-------10---------9---------------|--------------------|
--2--------------6/-|--9----------9---------11----9----|--------------------|
--------------------|----------------------------------|--11----------------|
--------------------|----------------------------------|--------------------|
--------------------|----------------------------------|--------------------|


                                                                                
---------------------------|-------------------|-------------------------------|
---------------------------|-------------------|-------------------------------|
----------11---------------|-------------------|-----------6-------------------|
----------------11----9----|--7----------------|----------------9----7----6----|
---------------------------|-------------------|------7------------------------|
---------------------------|-------------------|-------------------------------|


                                                                           
-------------------|----------------------------------|-------------------|
-------------------|------10----10----10----9---------|--7----------------|
-------------------|-----------------------------9----|-------------------|
--7----------------|------11----11----11--------------|--7----------------|
-------------------|----------------------------------|-------------------|
-------------------|----------------------------------|-------------------|


                                                              
------------------------------------|------------------------|
------------------------------------|--------------------2h5/|
--------------9----9----11----13----|--------2h4r--2---2-----|
--11----12--------------------------|------------------------|
------------------------------------|------------------------|
------------------------------------|------------------------|


                                                                 
--------------------|----------------------|--------------------|
--7h-----5----------|----5b-------5--2-----|--------------------|
--------------------|-------------------2--|--------------------|
--------------------|----------------------|--4b-------2--------|
--------------------|----------------------|--------------------|
--------------------|----------------------|--------------------|


                                                                      
------------------------|-----5----------------|---------------------|
------------------2h-5/-|--7-----7--5----------|----5b---------2-----|
---------2h4r--2--------|----------------------|------------------4--|
------------------------|----------------------|---------------------|
--4---------------------|----------------------|---------------------|
--2---------------------|----------------------|---------------------|


                                                            
-------------------------|------------------------2--------|
----------------5-----7--|----------------2-----2---5h2----|
--2------x-x----4--4--6--|--------2-----2---2h4---------4--|
---------x-x-6-----------|------2---2h4--------------------|
-------------------------|--2h4----------------------------|
-------------------------|---------------------------------|


                                                        
----------------------|--------------------------------|
----------------------|-------7~---7----7--------------|
--2--------2/---9r--7h|--9b------------------9----7----|
----------------------|--------------------------------|
----------------------|--------------------------------|
----------------------|--------------------------------|


                                                                              
------------------------|----------------------------|-----------------------|
------------------------|----------7--9----7---------|-----------7-----------|
--9----9h7/6--9---------|-----9b----------------6----|--9b----------9--6-----|
-----------------9------|--9/------------------------|--------------------7--|
------------------------|----------------------------|-----------------------|
------------------------|----------------------------|-----------------------|


                                                         
-----------------------|--------------------------------|
-----------------------|--5--------------5----5---------|
-----------------2/-4--|--4b---4----2----4----2----1----|
--4------4----6--------|--------------------------------|
-----------------------|--------------------------------|
-----------------------|--------------------------------|


                                                                         
---------------------------|--------------------|-----------2-----------|
-----------------------2-5/|--7~-----5----------|----5b--------2--------|
-----------2h4r--2---2-----|--------------------|-----------------2/-1--|
--4--4---4-----------------|--------------------|-----------------------|
---------------------------|--------------------|-----------------------|
---------------------------|--------------------|-----------------------|


                                                                      
--------------------|-------------------------|-----5----------------|
--------------------|---------------------2-5/|--7-----7--5~---------|
--------------------|---------2h4r--2---2-----|----------------------|
--4------2----------|-------4-----------------|----------------------|
--------------------|-------------------------|----------------------|
--------------------|-------------------------|----------------------|


                                                                    
------5----------------|-----------------------|-------------------|
-----------7-----------|-----------------------|-------------------|
--------------6--4--2--|----4r---2h4-------2/1/|--2----------------|
-----------------------|-----------------------|-------------------|
-----------------------|-----------------------|-------------------|
-----------------------|-----------------------|-------------------|


                                                                            
------------------|------------------|------------------|------------------|
------------------|------------------|------------------|------------------|
------------------|------------------|------------------|------------------|
------------------|------------------|------------------|------------------|
------------------|------------------|------------------|------------------|
------------------|------------------|------------------|------------------|


                                                                               
------------------|------------------|------------------|---------------------|
------------------|------------------|------------------|---------------------|
------------------|------------------|------------------|--------2h4r--2------|
------------------|------------------|------------------|---------------------|
------------------|------------------|------------------|---------------------|
------------------|------------------|------------------|---------------------|


                                                                 
------------------|-------------------------|-------------------|
------------------|-------------------------|-------------------|
------------------|----------4b---4b---4----|--2----------------|
------------------|-------------------------|-------------------|
------------------|-------------------------|-------------------|
------------------|-------------------------|-------------------|


                                                                       
------------------|----------------4b-|------4----2-------------------|
------------------|-------------------|----------------5----2---------|
------------------|-------------------|--------------------------2----|
------------------|-------------------|-------------------------------|
------------------|-------------------|-------------------------------|
------------------|-------------------|-------------------------------|


                                                              
-------------------|----------------------|------------------|
-------------------|----------------------|------------------|
-------------------|---------2-4r--2------|------------------|
--4----------------|-------4--------------|------------------|
-------------------|----------------------|------------------|
-------------------|----------------------|------------------|


                                                                       
--------------------------|----------------------|--------------------|
---------2--5-------------|----------------------|-----------------7--|
----4b---------4r---2-----|--4---2----4----------|------------9b------|
-----------------------4--|----4-----------------|--------------------|
--------------------------|----------------------|--------------------|
--------------------------|----------------------|--------------------|


                                                               
---------------------------|----------------------------------|
--7----9----10----9b-------|------9----7----------------------|
---------------------------|--------------9h-6----------------|
---------------------------|--------------------7--6--9--9----|
---------------------------|----------------------------------|
---------------------------|----------------------------------|


                                                                      
----------------------|-------------------------|--------------------|
----------------------|---------------------2h5/|--5/7~--------------|
----------------------|---------2h4r--2---2-----|--------------------|
----7----11--9--------|-------4-----------------|--------------------|
----------------------|-------------------------|--------------------|
----------------------|-------------------------|--------------------|


                                                                        
--------------------|---------------------|----------------------------|
--------------2-----|---------------------|--------10--10----9----5h---|
-----------------4h-|--2------6/-4--------|----------------------------|
--------------------|---------------------|--------11--11----9----6/---|
--------------------|---------------------|----------------------------|
--------------------|---------------------|----------------------------|


                                                                      
-------------------------|------------------------|------------------|
--7----------------------|------------------------|------------------|
---------------2----1----|--4------2h-1-----------|------------------|
--7----------------------|---------------4--2--4--|------------------|
-------------------------|------------------------|------------------|
-------------------------|------------------------|------------------|


                                                                      
-------------------------|--------------------|----------------------|
---------------------2h5/|--7~-----5----------|------5b---5r---2-----|
---------2h4r--2---2-----|--------------------|-------------------2--|
-------4-----------------|--------------------|----------------------|
-------------------------|--------------------|----------------------|
-------------------------|--------------------|----------------------|


                                                                        
--------------------|------------------------|-------------------------|
--------------------|------------------------|------10-----------------|
--------------------|--6---------------6h-9--|--11--------11--9--------|
--4~-----2----------|--4------6h-7h-9--------|-------------------------|
--------------------|------------------------|-------------------------|
--------------------|------------------------|-------------------------|


                                                     
------------------------|---------------------------|
----9r----7-------------|-------------------10--10--|
------------9--6--------|-------------------9---9---|
------------------7--6--|--7/-9--11--9------7---7---|
------------------------|---------------------------|
------------------------|---------------------------|


                                                               
----------------------------------------|---------------------|
--10-------------------10---------------|---------------------|
--9h-11-11-11-11h9-----9h-11h9-9-----9--|--11~-----9~---------|
-------------------11------------11-----|---------------------|
----------------------------------------|---------------------|
----------------------------------------|---------------------|


                                                             
---------------------------------------|--------------------|
--10-------------------10--------------|--------------------|
--9h-11-11-11-11h9-----9h-11--9-----9/-|--7------9----------|
-------------------11-----------11--9/-|--7------9----------|
---------------------------------------|--------------------|
---------------------------------------|--------------------|


                                                               
----------------------------------------|---------------------|
--10-------------------10-----------10--|---------------------|
--9h-11-11-11-11h9-----9h-11--9---------|--11r-------9--------|
-------------------11-----------11------|---------------------|
----------------------------------------|---------------------|
----------------------------------------|---------------------|


                                                                    
--------------------------------------|----------------------------|
--10-----------------10-----10--------|----------------------------|
--9h-11--11-11h9-----9h-11--9------9/-|--7------9---------11--9----|
-----------------11------------11--9/-|--7------9----9h11-------11-|
--------------------------------------|----------------------------|
--------------------------------------|----------------------------|


                                                           
-------------------------------|--------------------------|
-------------------------------|--------------------------|
--11~-----9----11~----11h14h11-|--14~-----13~-------11h13/|
------------11-----------------|--------------------------|
-------------------------------|--------------------------|
-------------------------------|--------------------------|


                                                        
-----------------------------|-------------------------|
-----------------------------|-------------------------|
--14--13--11--9-11-----------|-------9-----------------|
-------------------11--------|--9/11---9---7--9--------|
-----------------------------|-------------------------|
-----------------------------|-------------------------|


                                                                               
-------------------------|------------------------|---------------------------|
---------7--10h7---7~----|----10b---10--9~-----9b-|----9--7-------------------|
----9b-----------9-------|------------------------|---------9h6---6-----------|
-------------------------|------------------------|-------------9---7~----7-7-|
-------------------------|------------------------|-----------------------5-5-|
-------------------------|------------------------|---------------------------|


                                                                         
---------------------------------|--------------------------------------|
---------------------------------|--10-----------------10---------------|
---------7-7-7-------9--11h9-----|--9h-11--11-11h9-----9h-11h9-9-----9--|
--7------7-7-7-------9-------11--|-----------------11------------11-----|
--5--7/9--------9/11-------------|--------------------------------------|
---------------------------------|--------------------------------------|


                                                                
---------------------|-----------------------------------------|
---------------------|--10-------------------10----------------|
--11~-----9----------|--9h-11-11-11-11h9-----9h-11----9-----9/-|
---------------------|-------------------11--------11---11--9/-|
---------------------|-----------------------------------------|
---------------------|-----------------------------------------|


                                                              
--------------------|----------------------------------------|
--------------------|--10-------------------10-----------10--|
--7------9----------|--9h-11-11-11-11h9-----9h-11--9---------|
--7------9----------|-------------------11-----------11------|
--------------------|----------------------------------------|
--------------------|----------------------------------------|


                                                              
---------------------|---------------------------------------|
---------------------|--10-----------------10----------------|
--11r-------9--------|--9h-11--11-11h9-----9h-11----9-----9/-|
---------------------|-----------------11--------11---11--9/-|
---------------------|---------------------------------------|
---------------------|---------------------------------------|


                                                                               
---------------------|------------------|------------------|------------------|
---------------------|------------------|------------------|------------------|
--7----x--4----------|------------------|------------------|------------------|
--7----x--2----------|------------------|------------------|------------------|
-------x--2----------|------------------|------------------|------------------|
-------x--0----------|------------------|------------------|------------------|


                                       
------------------|------------------||
------------------|------------------||
------------------|------------------||
------------------|------------------||
------------------|------------------||
------------------|------------------||




Продолжаем грести бабос на ботах в Telegram.
Только в этот раз есть вариант автоматизировать это дело, привлекая рефералов. Вы можете заработать если »









О сайтеАккордыХит-парадПоискУроки ФорумыИщу песню
ПрограммыСвежачок-сПодпискаСтатьи
Яндекс.Метрика