Табулатура Mark Knopfler | Golden Heard гитара табулатуры уроки тексты песен Mark Knopfler текст lyrics песня аккорды песни ноты нота электрогитара струна  
   А Б В Г Д Е Ж З И К Л М Н О П Р С Т У Ф Х Ч Ш Ы Э Ю Я       Разные песни
1-9 A B C D E F G H I J K L M N O P Q R S T U V W Y Z      Все исполнители

    



группа Mark Knopfler, Табулатура песни Golden Heard

Группа: Mark Knopfler - другие аккорды (43),   об исполнителе (1 статей),   диски (11),   фотографии (8)
Табулатура песни: Golden Heard
Просмотров: 1619
Прислал: String




    

E||------|------|------|------|------|-----------------------|
B||------|------|------|------|------|-----------0-----------|
G||------|------|------|------|------|-----0h-2--0--------0h-|
D||------|------|------|------|------|-----0h-2--------------|
A||------|------|------|------|------|-----------------------|
E||------|------|------|------|------|--3--------------------|


                                                                      
---------------------|-------------------------|---------------------|
---------------------|--8------10h8h7-------5--|------8--------5/-3--|
--2----0--0----------|--7----------------0--5--|---------------------|
--4------------------|--5-------------------5--|---------------------|
---------------------|-------------------------|---------------------|
---------------------|-------------------------|---------------------|


                                                                           
-----3-------------------|----------------------|-------------------------|
--5-------------------3--|----------------------|--5-------5-----3--------|
--------4----4--2--0-----|---------4------------|-------0-----------------|
-------------------------|------5---------3/-5h-|-------------5-----5h-4h-|
-------------------------|----------------------|-------------------------|
-------------------------|----------------------|-------------------------|


                                                                   
-----------------------|---------------------|--------------------|
--3-------3/-1------0--|-----------3------1--|--------------------|
-----------------------|------0----4------2--|----0--0------------|
-------4-----2------0--|---------------------|--------------------|
-----------------------|---------------------|--------------------|
-----------------------|---------------------|--------------------|


                                                                             
--3------5--5h-3h-2-----|--0-------3-------0-----|--------3-----------------|
--3---------------------|--1----1-------1--------|--3h-5-----3--------------|
--0------------------0--|--0------------------0--|--5-----------2h-4h-2--0--|
------------------------|------------------------|--------------------------|
------------------------|------------------------|--------------------------|
------------------------|------------------------|--------------------------|


                                                                           
------------------------|-------------------------|-----------------------|
--3---------------------|--1----1--3h-1h-0--------|---------0-------0-----|
-----0h-4--4~-----4-----|--0----------------0-----|---------0----------0--|
---------------------2--|--2----------------0--2--|--0------0-------------|
------------------------|-------------------------|-----------------------|
------------------------|-------------------------|------------3----------|


  C                       G                                                 
-----------------------|-------------------------|-------------------------|
--1------0--3----------|--3----3--3-----3--3--3--|--3----3--3-----3--3--3--|
--0---------2-------0--|--0----0--0-----0--0--0--|--0----0--0-----0--0--0--|
--2--------------0--0--|--0----0--0-----0--0--0--|--0----0--0-----0--0--0--|
--3--------------------|-------------------------|-------------------------|
-----------------------|--3----------3-----------|--3----------3-----------|


                            D                         G/B                     
-------------------------|-------------------------|-------------------------|
--3----3--3-----3--3--3--|--3----3--3-----3--3--3--|--3----3--3-----3--3--3--|
--0----0--0-----0--0--0--|--2----2--0-----0--0--0--|--0----0--0-----0--0--0--|
--0----0--0-----0--0--0--|--0----0--0-----0--0--0--|--0----0--0-----0--0--0--|
-------------------------|-------------------------|--2----------2-----------|
--3----------3-----------|-------------3-----------|-------------------------|


  Cadd9                     G                                                 
-------------------------|-------------------------|-------------------------|
--3----3--3-----3--3--3--|--3----3--3-----3--3--3--|--3----3--3-----3--3--3--|
--0----0--0-----0--0--0--|--0----0--0-----0--0--0--|--0----0--0-----0--0--0--|
--2----2--2-----2--2--2--|--0----0--0-----0--0--0--|--0----0--0-----0--0--0--|
--3----------3-----------|-------------------------|-------------------------|
-------------------------|--3----------3-----------|--3----------3-----------|


  Cadd9                     D                        G                       
-------------------------|------------------------|-------------------------|
--3----3--3-----3--3--3--|--3----3--3----3--3--3--|--3----3--3-----3--3--3--|
--0----0--0-----0--0--0--|--2----2--0----0--2--0--|--0----0--0-----0--0--0--|
--2----2--2-----2--2--2--|--0----0--0----0--0--0--|--0----0--0-----0--0--0--|
--3----------3-----------|------------------------|-------------------------|
-------------------------|------------------------|--3----------3-----------|


  D                         G/B                       Cadd9                   
-------------------------|-------------------------|-------------------------|
--3----3--3-----3--3--3--|--3----3--3-----3--3--3--|--3----3--3-----3--3--3--|
--2----2--0-----0--0--0--|--0----0--0-----0--0--0--|--0----0--0-----0--0--0--|
--0----0--0-----0--0--0--|--0----0--0-----0--0--0--|--2----2--2-----2--2--2--|
-------------------------|--2----------------------|--3----------3-----------|
-------------3-----------|-------------3-----------|-------------------------|


  G                                                   Cadd9                   
-------------------------|-------------------------|-------------------------|
--3----3--3-----3--3--3--|--3----3--3-----3--3--3--|--3----3--3-----3--3--3--|
--0----0--0-----0--0--0--|--0----0--0-----0--0--0--|--0----0--0-----0--0--0--|
--0----0--0-----0--0--0--|--0----0--0-----0--0--0--|--2----2--2-----2--2--2--|
-------------------------|-------------------------|--3----------3-----------|
--3----------3-----------|--3----------3-----------|-------------------------|


  D          G             Cadd9      D             G                       
------------------------|------------------------|-------------------------|
--3----3--3--3----3--3--|--3----3--3--3----3--3--|--3----3--3-----3--3--3--|
--2----2--0--0----0--0--|--0----0--0--2----2--0--|--0----0--0-----0--0--0--|
--0----0--0--0----0--0--|--2----2--0--0----0--0--|--0----0--0-----0--0--0--|
------------------------|--3---------------------|-------------------------|
-------------3----------|------------------------|--3----------3-----------|


                                                      D                       
-------------------------|-------------------------|-------------------------|
--3----3--3-----3--3--3--|--3----3--3-----3--3--3--|--3----3--3-----3--3--3--|
--0----0--0-----0--0--0--|--0----0--0-----0--0--0--|--2----2--0-----0--0--0--|
--0----0--0-----0--0--0--|--0----0--0-----0--0--0--|--0----0--0-----0--0--0--|
-------------------------|-------------------------|-------------------------|
--3----------3-----------|--3----------3-----------|-------------3-----------|


  G/B                       Cadd9                     G                       
-------------------------|-------------------------|-------------------------|
--3----3--3-----3--3--3--|--3----3--3-----3--3--3--|--3----3--3-----3--3--3--|
--0----0--0-----0--0--0--|--0----0--0-----0--0--0--|--0----0--0-----0--0--0--|
--0----0--0-----0--0--0--|--2----2--2-----2--2--2--|--0----0--0-----0--0--0--|
--2----------2-----------|--3----------3-----------|-------------------------|
-------------------------|-------------------------|--3----------3-----------|


                            Cadd9                     D                      
-------------------------|-------------------------|------------------------|
--3----3--3-----3--3--3--|--3----3--3-----3--3--3--|--3----3--3----3--3--3--|
--0----0--0-----0--0--0--|--0----0--0-----0--0--0--|--2----2--0----0--2--0--|
--0----0--0-----0--0--0--|--2----2--2-----2--2--2--|--0----0--0----0--0--0--|
-------------------------|--3----------3-----------|------------------------|
--3----------3-----------|-------------------------|------------------------|


  G                         D                        G/B                     
-------------------------|------------------------|-------------------------|
--3----3--3-----3--3--3--|--3----3--3----3--3--3--|--3----3--3-----3--3--3--|
--0----0--0-----0--0--0--|--2----2--0----0--0--0--|--0----0--0-----0--0--0--|
--0----0--0-----0--0--0--|--0----0--0----0--0--0--|--0----0--0-----0--0--0--|
-------------------------|------------------------|--2----------2-----------|
--3----------3-----------|------------------------|-------------------------|


  Cadd9                     G                                                 
-------------------------|-------------------------|-------------------------|
--3----3--3-----3--3--3--|--3----3--3-----3--3--3--|--3----3--3-----3--3--3--|
--0----0--0-----0--0--0--|--0----0--0-----0--0--0--|--0----0--0-----0--0--0--|
--2----2--2-----2--2--2--|--0----0--0-----0--0--0--|--0----0--0-----0--0--0--|
--3----------3-----------|-------------------------|-------------------------|
-------------------------|--3----------3-----------|--3----------3-----------|


  Cadd9                     D          G             Cadd9      D           
-------------------------|------------------------|------------------------|
--3----3--3-----3--3--3--|--3----3--3--3----3--3--|--3----3--3--3----3--3--|
--0----0--0-----0--0--0--|--2----2--0--0----0--0--|--0----0--0--2----2--0--|
--2----2--2-----2--2--2--|--0----0--0--0----0--0--|--2----2--0--0----0--0--|
--3----------3-----------|------------------------|--3---------------------|
-------------------------|-------------3----------|------------------------|


 G                         G                         C                 D      
------------------------|-------------------------|--0--0--0--0--0--0--2--2--|
-3----3--3-----3--3--3--|--3----3--3-----3--3--3--|--1--1--1--1--1--1--3--3--|
-0----0--0-----0--0--0--|--0----0--0-----0--0--0--|--0--0--0--0--0--0--2--2--|
-0----0--0-----0--0--0--|--0----0--0-----0--0--0--|--2-----2-----2-----0-----|
------------------------|-------------------------|--3-----3-----3-----------|
-3----------3-----------|--3----------3-----------|--------------------------|


  Em                         C                        
--0--0--0--0--0--0--0--0--|--------------------------|
--0--0--0--0--0--3--3--3--|--------3h-1-----0--0--0--|
--0--0--0--0--0--0--0--0--|-----------------0--0--0--|
--2-----2-----2-----2-----|-----2-----------2--2--2--|
--------------------------|--3-----------3-----------|
--------------------------|--------------------------|


  Am             G/B         C                        
--------------------------|--0--0--0--0--0--0--2--2--|
--1--1--1--1--1--3--3--3--|--1--1--1--1--1--1--3--3--|
--2--2--2--2--2--0--0--0--|--0--0--0--0--0--0--2--2--|
--2--2--2--2--2--0--0--0--|--2-----2-----2-----0-----|
--0-----0-----0-----2-----|--3-----3-----3-----------|
--------------------------|--------------------------|


  Em             Em7         C                          Am           D
-0--0--0--0--0--0--0--0--|--------------------------|------------------------|
-0--0--0--0--0--3--3--3--|--------3h-1-----0--0--0--|--1--1--1--3----3--3--3-|
-0--0--0--0--0--0--0--0--|-----------------0--0--0--|--2--2--2--2----2--2--2-|
-2-----2-----2-----2-----|-----2-----------2--2--2--|--2--2--2--0----0--0--0-|
-------------------------|--3-----------3-----------|--0-----0---------------|
-------------------------|--------------------------|------------------------|


  C7M                 D                                               
-------------------|------------------------|------------------------|
--0----0-----0-----|--3----3--3--3----3--3--|--3----3--3--3----3--3--|
--0----0--0--0--0--|--2----2--0--2----2--2--|--2----2--0--2----2--2--|
--2----2--2--2--2--|--0----0--0--0----0--0--|--0----0--0--0----0--0--|
--3----3--3--3--3--|--0----0-----0----0-----|--0----0-----0----0-----|
--3----3-----3-----|------------------------|------------------------|


 G                                                    C                     
-3----3--3--------------|--------------------------|--0--0--0--0--0--0--0--0-|
-0----0--0-----------0--|--------0-----3--3--3--3--|--1--1--1--1--1--3--3--0-|
-0----0--0-----0h-2-----|-----0-----0--0--0--0--0--|--0--0--0--0--0--0--0--0-|
-0----0--0--0-----------|--------------0--0--0--0--|--2-----2-----2-----2----|
-2----2-----------------|--------------------------|--3-----3-----3-----3----|
-3----3-----------------|--3-----------------------|-------------------------|


  G                                                   
-----3-----3-----3-----3--|-----3-----3--------------|
--0--0--0--0--0--0--0--0--|--0--0--0--0-----------0--|
--0--0--0--0--0--0--0--0--|--0--0--0--0-----0h-2-----|
--0--0--0--0--0--0--0--0--|--0--0--0--0--0-----------|
--2-----2-----2-----2-----|--2-----2-----------------|
--3-----3-----3-----3-----|--3-----3-----------------|


                             C                        
--------------------------|--0--0--0--0--0--0--0--2--|
--------0-----3--3--3--3--|--1--1--1--1--1--1--1--3--|
-----0-----0--0--0--0--0--|--0--0--0--0--0--0--0--2--|
--------------0--0--0--0--|--2-----2-----2-----2-----|
--------------------------|--3-----3-----3-----3-----|
--3-----------------------|--------------------------|


  D                                                                            
--2--2--2--2--2--2--2--2--|--2--2--2--2------------|-------------------------|
--3--3--3--3--3--3--3--3--|--3--3--3--3------------|-----------3-------------|
--2--2--2--2--2--2--2--2--|--2--2--2--2----0----2--|--2/-4--4-----5h-4--2h-0-|
--0-----0-----0-----0-----|--0-----0---------------|-------------------------|
--------------------------|------------------------|-------------------------|
--------------------------|------------------------|-------------------------|


                                                                      
--------------------|--3------5h-3h-0--------|-----------------------|
--------------------|--3---------------------|--5~--------5--7----5/-|
--2------0----------|--0---------------0--0--|---------0--5----------|
--4-----------------|------------------------|-----------------------|
--------------------|------------------------|-----------------------|
--------------------|------------------------|-----------------------|


                                                                              
--------3-----------------|-------------------------|------------------------|
--3/-5--------------------|-------3-----------------|------------------------|
-----------4h---5h4-4--2--|--0-------4-----2h-0-----|-------0-----4----0--0--|
--------------------------|-------------0--------2--|--2-------2-------------|
--------------------------|-------------------------|------------------------|
--------------------------|-------------------------|------------------------|


                                                                      
-----------------------|-----------------------|---------------------|
------------------3----|----------0h-3------0h-|--3-------3----------|
--2------4h2h0----2----|--2/-4----0h-4------0h-|--2----0--4----------|
--0---------------0----|--3/-5-----------------|---------------------|
-----------------------|-----------------------|---------------------|
-----------------------|-----------------------|---------------------|


                                                                             
----------------------------|----------------------|-----3-------3--5----0--|
--8~-----8--10----8----7----|--5------7--8---------|------------------------|
--7~-----7--------7----7----|--5------7--9------0--|--4-------4-------------|
----------------------------|----------------------|------------------------|
----------------------------|----------------------|------------------------|
----------------------------|----------------------|------------------------|


                                                                           
-----------3-------------|-------------------------|----------------------|
--3-----3--3--------3----|-------------------------|----------------------|
-----4--------4--4-------|--5----5--7h-5--0--0-----|--2------4------2--0--|
-------------------------|--5-------5-----2--2--4--|--4------5------4--0--|
-------------------------|-------------------------|----------------------|
-------------------------|-------------------------|----------------------|


                           G                                                 
------------------------|-------------------------|-------------------------|
------------------------|--3----3--3-----3--3--3--|--3----3--3-----3--3--3--|
----5----2--2--4h2h0----|--0----0--0-----0--0--0--|--0----0--0-----0--0--0--|
----5----4--------------|--0----0--0-----0--0--0--|--0----0--0-----0--0--0--|
------------------------|-------------------------|-------------------------|
------------------------|--3----------3-----------|--3----------3-----------|


                            D                         G/B                     
-------------------------|-------------------------|-------------------------|
--3----3--3-----3--3--3--|--3----3--3-----3--3--3--|--3----3--3-----3--3--3--|
--0----0--0-----0--0--0--|--2----2--0-----0--0--0--|--0----0--0-----0--0--0--|
--0----0--0-----0--0--0--|--0----0--0-----0--0--0--|--0----0--0-----0--0--0--|
-------------------------|-------------------------|--2----------2-----------|
--3----------3-----------|-------------3-----------|-------------------------|


  Cadd9                     G                                                 
-------------------------|-------------------------|-------------------------|
--3----3--3-----3--3--3--|--3----3--3-----3--3--3--|--3----3--3-----3--3--3--|
--0----0--0-----0--0--0--|--0----0--0-----0--0--0--|--0----0--0-----0--0--0--|
--2----2--2-----2--2--2--|--0----0--0-----0--0--0--|--0----0--0-----0--0--0--|
--3----------3-----------|-------------------------|-------------------------|
-------------------------|--3----------3-----------|--3----------3-----------|


  Cadd9                     D                        G                       
-------------------------|------------------------|-------------------------|
--3----3--3-----3--3--3--|--3----3--3----3--3--3--|--3----3--3-----3--3--3--|
--0----0--0-----0--0--0--|--2----2--0----0--2--0--|--0----0--0-----0--0--0--|
--2----2--2-----2--2--2--|--0----0--0----0--0--0--|--0----0--0-----0--0--0--|
--3----------3-----------|------------------------|-------------------------|
-------------------------|------------------------|--3----------3-----------|


  D                        G/B                       Cadd9                   
------------------------|-------------------------|-------------------------|
--3----3--3----3--3--3--|--3----3--3-----3--3--3--|--3----3--3-----3--3--3--|
--2----2--0----0--0--0--|--0----0--0-----0--0--0--|--0----0--0-----0--0--0--|
--0----0--0----0--0--0--|--0----0--0-----0--0--0--|--2----2--2-----2--2--2--|
------------------------|--2----------2-----------|--3----------3-----------|
------------------------|-------------------------|-------------------------|


  G                                                  Cadd9                   
-------------------------|------------------------|-------------------------|
--3----3--3-----3--3--3--|--3----3--3----3--3--3--|--3----3--3-----3--3--3--|
--0----0--0-----0--0--0--|--0----0--0----0--0--0--|--0----0--0-----0--0--0--|
--0----0--0-----0--0--0--|--0----0--0----0--0--0--|--2----2--2-----2--2--2--|
-------------------------|------------------------|--3----------3-----------|
--3----------3-----------|--3---------------------|-------------------------|


  D          G             Cadd9      D             G                       
------------------------|------------------------|-------------------------|
--3----3--3--3----3--3--|--3----3--3--3----3--3--|--3----3--3-----3--3--3--|
--2----2--0--0----0--0--|--0----0--0--2----2--0--|--0----0--0-----0--0--0--|
--0----0--0--0----0--0--|--2----2--0--0----0--0--|--0----0--0-----0--0--0--|
------------------------|--3---------------------|-------------------------|
-------------3----------|------------------------|--3----------3-----------|


 G                         C                 D        Em             Em7  
------------------------|--0--0--0--0--0--0--2--2--|--0--0--0--0--0--0--0--0-|
-3----3--3-----3--3--3--|--1--1--1--1--1--1--3--3--|--0--0--0--0--0--3--3--3-|
-0----0--0-----0--0--0--|--0--0--0--0--0--0--2--2--|--0--0--0--0--0--0--0--0-|
-0----0--0-----0--0--0--|--2-----2-----2-----0-----|--2-----2-----2-----2----|
------------------------|--3-----3-----3-----------|-------------------------|
-3----------3-----------|--------------------------|-------------------------|


  Cadd9                      Am                       
--------------------------|--------------------------|
--------3h-1-----0--0--0--|--1--1--1--1--1--3--3--3--|
-----------------0--0--0--|--2--2--2--2--2--0--0--0--|
-----2-----------2--2--2--|--2--2--2--2--2--0--0--0--|
--3-----------3-----------|--0-----0-----0-----2-----|
--------------------------|--------------------------|


  C                 D        Em                       
--0--0--0--0--0--0--2--2--|--0--0--0--0--0--0--0--0--|
--1--1--1--1--1--1--3--3--|--0--0--0--0--0--3--3--3--|
--0--0--0--0--0--0--2--2--|--0--0--0--0--0--0--0--0--|
--2-----2-----2-----0-----|--2-----2-----2-----2-----|
--3-----3-----3-----------|--------------------------|
--------------------------|--------------------------|


  Cadd9                      Am                        C7M               
--------------------------|-------------------------|-------------------|
--------3h-1-----0--0--0--|--1--1--1--3----3--3--3--|--0----0-----0-----|
-----------------0--0--0--|--2--2--2--2----2--2--2--|--0----0--0--0--0--|
-----2-----------2--2--2--|--2--2--2--0----0--0--0--|--2----2--2--2--2--|
--3-----------3-----------|--0-----0----------------|--3----3--3--3--3--|
--------------------------|-------------------------|--3----3-----3-----|


  D                                                 G                       
------------------------|------------------------|--3----3--3--------------|
--3----3--3--3----3--3--|--3----3--3--3----3--3--|--0----0--0-----------0--|
--2----2--0--2----2--2--|--2----2--0--2----2--2--|--0----0--0-----0h-2-----|
--0----0--0--0----0--0--|--0----0--0--0----0--0--|--0----0--0--0-----------|
--0----0-----0----0-----|--0----0-----0----0-----|--2----2-----------------|
------------------------|------------------------|--3----3-----------------|


  G                          C                        
--------------------------|--0--0--0--0--0--0--0--0--|
--------0-----3--3--3--3--|--1--1--1--1--1--3--3--0--|
-----0-----0--0--0--0--0--|--0--0--0--0--0--0--0--0--|
--------------0--0--0--0--|--2-----2-----2-----2-----|
--------------------------|--3-----3-----3-----3-----|
--3-----------------------|--------------------------|


                             G                        
-----3-----3-----3-----3--|-----3-----3--------------|
--0--0--0--0--0--0--0--0--|--0--0--0--0-----------0--|
--0--0--0--0--0--0--0--0--|--0--0--0--0-----0h-2-----|
--0--0--0--0--0--0--0--0--|--0--0--0--0--0-----------|
--2-----2-----2-----2-----|--2-----2-----------------|
--3-----3-----3-----3-----|--3-----3-----------------|


                             C                    D   
--------------------------|--0--0--0--0--0--0--0--2--|
--------0-----3--3--3--3--|--1--1--1--1--1--1--1--3--|
-----0-----0--0--0--0--0--|--0--0--0--0--0--0--0--2--|
--------------0--0--0--0--|--2-----2-----2-----2-----|
--------------------------|--3-----3-----3-----3-----|
--3-----------------------|--------------------------|


                             G                        
--2--2--2--2--2--2--2--3--|-----3-----3--------------|
--3--3--3--3--3--3--3--0--|--0--0--0--0-----------0--|
--2--2--2--2--2--2--2--0--|--0--0--0--0-----0h-2-----|
--0-----0-----0-----0-----|--0--0--0--0--0-----------|
--------------------------|--2-----2-----------------|
--------------------------|--3-----3-----------------|


                             C                        
--------------------------|--0--0--0--0--0--0--0--0--|
--------0-----3--3--3--3--|--1--1--1--1--1--1--1--0--|
-----0-----0--0--0--0--0--|--0--0--0--0--0--0--0--0--|
--------------0--0--0--0--|--2-----2-----2-----2-----|
--------------------------|--3-----3-----3-----3-----|
--3-----------------------|--------------------------|


                             C7M                      D                      
--------------------------|--0----0--0----0--0--0--|--2----2--2----2--2--2--|
-----------0--0--0--0--0--|--0----0--0----0--0--0--|--3----3--3----3--3--3--|
--------0--0--0--0--0--0--|--0----0--0----0--0--0--|--2----2--2----2--2--2--|
-----0-----0--0--0--0--0--|--2----2--2----2--2--2--|--0----0--0----0--0--0--|
--------------------------|--3---------------------|------------------------|
--3-----------------------|--3---------------------|------------------------|


  G                                                                           
-------------------------|-------------------------|-------------------------|
--0----0--0-----0--0--3--|--0----0--0-----0--0--0--|--0----0--0-----0--0--0--|
--0----0--0-----0--0--0--|--0----0--0-----0--0--0--|--0----0--0-----0--0--0--|
--0----0--0-----0--0--0--|--0----0--0-----0--0--0--|--0----0--0-----0--0--0--|
-------------------------|-------------------------|-------------------------|
--3----------3-----------|--3----------3-----------|--3----------3-----------|


                     
--3----------------||
--0----------------||
--0----------------||
--0----------------||
-------------------||
--3----------------||


Golden heart


She was swinging by the bangles in a main street store
A while before we met
The most dangerous angles that you ever saw
She spied her amulet
And she took a loop of leather for around her neck
And that was then the start
The most dangerous lady on her quarter deck
She found her golden heart
You found your golden heart

Then we swirled around each other and the tread was spun
To some Arcadian band
I would stop it from swinging like a pendulum
Just to hold time in my hand
And you shot me with a cannonball of history
And long forgotten art
I\'d be turning it over as our words ran free
I\'d hold your golden heart
I\'d hold your golden heart

Nothing in the world prepared me for, your heart, your heart
Nothing in the world that I love more your heart, your heart
Your golden heart

And every time I\'m thinking of you from a distant shore
And all the time I sleep
I will have a reminder that my baby wore
A part of you to keep
And I\'ll send you all my promises across the sea
And while we are apart
I will carry the wonder that you gave to me
I\'ll wear your golden heart
I\'ll wear your golden heart

Nothing in the world prepared me for, your heart, your heart
Nothing in the world that I love more you heart, your heart
Your golden heart



Продолжаем грести бабос на ботах в Telegram.
Только в этот раз есть вариант автоматизировать это дело, привлекая рефералов. Вы можете заработать если »









О сайтеАккордыХит-парадПоискУроки ФорумыИщу песню
ПрограммыСвежачок-сПодпискаСтатьи
Яндекс.Метрика