Басовая табулатура Metallica | Fade To Black гитара табулатуры уроки тексты песен Metallica текст lyrics песня аккорды песни ноты нота электрогитара струна  
   А Б В Г Д Е Ж З И К Л М Н О П Р С Т У Ф Х Ч Ш Ы Э Ю Я       Разные песни
1-9 A B C D E F G H I J K L M N O P Q R S T U V W Y Z      Все исполнители in english

    



группа Metallica, Басовая табулатура песни Fade To Black

Группа: Metallica - другие аккорды (225),   о группе (32 статей),   диски (11),   фотографии (49)
Басовая табулатура песни: Fade To Black
Просмотров: 3569
Прислал: Danil aka Angel_Cras (Angel_Crash@mail.ru)




    
Обозначения:
  w   - целая нота             W – целая пауза
  h   - половинная нота        H - половинная пауза
  q   - четвертная нота        Q - четвертная пауза
  e   - восьмая нота           E - восьмая пауза
  s   - шестнадцатая нота      S - шестнадцатая пауза
  t   - тридцать вторая нота   T - тридцать вторая пауза
  +   - держать ноту во время звучания следующей
  .   – пунктирный ритм: точка продлевает ноту
        на половину её звучания: e. = e + s
  {3} – триоль (три ноты, которые по длительности равны q)
 
Басовые табы==========================================================
           
q  = 116 
------|---|---|---|-------|---|---|---|-------|---|---|---|-------|---|
------|---|---|---|-------|---|---|---|-------|---|---|---|-------|---|
------|---|---|---|-----4-|-2-|---|---|-----4-|-2-|---|---|-----4-|-2-|
------|---|---|---|-------|---|---|---|-------|---|---|---|-------|---|
        W   W   W   Q.. e   w   W   W   Q.. e   w   W   W   Q.. e   w
                       Очень мягко-------------------------------------
 
|---|---|-------|---|---|---|---------|-----------|--------||
|---|---|-------|---|---|---|---------|-----------|--------||
|---|---|-----4-|-2-|---|---|---------|-----------|------7-||
|---|---|-------|---|---|---|-----(0)-|-1--0-4--0-|-7--7---||
  W   W   Q.. e   w   W   W   Q..  e    q. e q. e   q. e h
-------------------------------------|
 
|---|---|---|-----------|---|---|---|-----------|---------|-----------|
|---|---|---|-----------|---|---|---|-----------|---------|-----------|
|-0-|---|---|---7---7---|-0-|---|---|-----------|-0-0-0-2-|-3-3-3h5-3-|
|---|---|---|---0---0---|---|---|---|---0---0---|---------|-----------|
  w   W   W   H e E e E   w   W   W   H e E e E   h q e e   h q s s e
 
|---------|----------|---------|-----------|---------|--------||
|---------|----------|---------|-----------|---------|--------||
|-----5-3-|-------7\\-|-0-0-0-2-|-3-3-3h5-3-|---------|---7\\---||
|-3-3-----|-0-0------|---------|-----------|-3-3-5-3-|-0----0-||
  h q e e   h e E q    h q e e   h q s s e   h q e e   h q  q
 
Куплет 1
|---------|-----------|---------|---------|---------|-----------|---------|
|---------|-----------|---------|---------|---------|-----------|---------|
|-0-0-0-2-|-3-3-3h5-3-|-----5-3-|---7\\-7\\-|-0-0-0-2-|-3-3-3h5-3-|---------|
|---------|-----------|-3-3-----|-0-------|---------|-----------|-3-3-5-3-|
  h q e e   h q s s e   h q e e   h q  q    h q e e   h q s s e   h q e e
 
|-----------|---------|-----------|---------|-----------|---------|
|-----------|---------|-----------|---------|-----------|---------|
|---7---7---|-0-0-0-2-|-3-3-3h5-3-|-----5-3-|---7---7---|-0-0-0-2-|
|-0---------|---------|-----------|-3-3-----|-0---------|---------|
  h e E e E   h q e e   h q s s e   h q e e   h e E e E   h q e e
 
|---------------|--------------|-----------------||------------------|
|-----------7-7-|-9---7--------|-----------------||-o----------------|
|-3-3/-7h10-----|-------7h10-7-|-7-7-7-7-7-7-7-7-||-o--------------5-|
|---------------|--------------|-----------------||---5--5-5-0-0-3---|
  h q  s s  s s   h+e e s s  e   e e e e e e e e      q. e e s s e e
 
|----------------|--------------|----------------|----------------|
|----------------|--------------|----------------|----------------|
|-3--3-3-------5-|----------5---|-7--7-7-----3-2-|--------------5-|
|--------0-0-3---|-5--5-5-------|--------0-0-----|-5--5-5-0-0-3---|
  q. e e s s e e   q. e e E e E   q. e e s s e e   q. e e s s e e
 
                                  2 раза 1ю интерлюдию
|----------------|------------|-----||---------|-----------|---------|
|----------------|------------|---o-||---------|-----------|---------|
|-3--3-3-------5-|------------|---o-||-0-0-0-2-|-3-3-3h5-3-|-----5-3-|
|--------0-0-3---|-5--5-5-3-2-|-0---||---------|-----------|-3-3-----|
  q. e e s s e e   q. e q e e   w      h q e e   h q s s e   h q e e
 
|----------|---------|-----------|---------|-----------||
|----------|---------|-----------|---------|-----------||
|-------7\\-|-0-0-0-2-|-3-3-3h5-3-|---------|---7-------||
|-0-0------|---------|-----------|-3-3-5-3-|-0-----0---||
  h e E q    h q e e   h q s s e   h q e e   h e E e E
 
Куплет 2
|---------|-----------|---------|----------|---------|-----------|---------|
|---------|-----------|---------|----------|---------|-----------|---------|
|-0-0-0-2-|-3-3-3h5-3-|-----5-3-|-------7/-|-0-0-0-2-|-3-3-3h5-3-|---------|
|---------|-----------|-3-3-----|-0-0------|---------|-----------|-3-3-5-3-|
  h q e e   h q s s e   h q e e   h e E q    h q e e   h q s s e   h q e e
 
|-----------|---------|-----------|---------|-------|---------|
|-----------|---------|-----------|---------|-------|---------|
|---7---7---|-0-0-0-2-|-3-3-3h5-3-|-----5-3-|-----7-|-0-0-0-2-|
|-0---------|---------|-----------|-3-3-----|-0-7---|---------|
  h e E e E   h q e e   h q s s e   h q e e   h q q   h q e e
 
|---------------|---------|-----------------||----------------|
|-----------7-7-|-9--(9)\\-|-----------------||----------------|
|-3-3/-7h10-----|---------|-7-7-7-7-7-7-7-7-||--------------5-|
|---------------|---------|-----------------||-5--5-5-0-0-3---|
  h q  s s  s s   h.  q     e e e e e e e e    q. e e s s e e
 
|----------------|--------------|----------------|----------------|
|----------------|--------------|----------------|----------------|
|-3--3-3-------5-|----------5---|-7--7-7-----3-2-|--------------5-|
|--------0-0-3---|-5--5-5-------|--------0-0-----|-5--5-5-0-0-3---|
  q. e e s s e e   q. e e E e E   q. e e s s e e   q. e e s s e e
 
|----------------|------------|---|----------------|----------------|
|----------------|------------|---|----------------|----------------|
|-3--3-3-------5-|------------|---|--------------5-|-3--3-3-------5-|
|--------0-0-3---|-5--5-5-3-2-|-0-|-5--5-5-0-0-3---|--------0-0-3---|
  q. e e s s e e   q. e q e e   w   q. e e s s e e   q. e e s s e e
 
|--------------|----------------|----------------|----------------|
|--------------|----------------|----------------|----------------|
|----------5---|-7--7-7-----3-2-|--------------5-|-3--3-3-------5-|
|-5--5-5-------|--------0-0-----|-5--5-5-0-0-3---|--------0-0-3---|
  q. e e E e E   q. e e s s e e   q. e e s s e e   q. e e s s e e
 
              q = 144 
|------------||---|-----|-----|-----|---|-----|-----------|
|------------||-9-|-(9)-|-(9)-|-(9)-|-9-|-(9)-|-(9)---9-9-|
|------------||-7-|-(7)-|-(7)-|-(7)-|-7-|-(7)-|-(7)-------|
|-5--5-5-3-2-||-0-|-(0)-|-(0)-|-(0)-|-0-|-(0)-|-(0)-------|
  q. e q e e    w   (w)   (w)   (w)   w   (w)   (h..) s s
 
                         bridge 1, interlude 2, bridge 2 (?)
|-----------------------||-----------|-----------|----------------|
|-9-7-7-7-5-5-5-4-4-4-5-||-o---------|-------5-4-|-(4)--------9-9-|
|-----------------------||-o-5-7-7-7-|-5-7-7-----|-----5-5-5------|
|-----------------------||-----------|-----------|----------------|
  e s s e s s e s s e e      e q e h   e q e e q.  (e) q e q. s s
 
                          6 раз
|--------------------------|||----------------|--------------|
|-9-7-7-7-5-5-5-4-4-4-5--o-|||-o--------------|--------------|
|------------------------o-|||-o---------7--7-|--------------|
|--------------------------|||---0-0-0-0------|-0-0-0-0-3-2--|
  e s s e s s e s s e e          e e e e q. e   e e e e e q.
 
                                           2 раза
|----------------|--------------------------||
|------------9-9-|-9-7-7-7-5-5-5-4-4-4-5--o-||
|---------5------|------------------------o-||
|-0-0-0-0--------|--------------------------||
  e e e e q. s s   e s s e s s e s s e e
 
    [B]                         [A]
||-----------|----------------|---------|----------------|
||-o---------|----------------|---------|----------------|
||-o----9--7-|-(7)-5--3-2-0---|----9--7-|-(7)-5--3-2-0---|
||---7-------|--------------2-|-5-------|--------------2-|
     q. q. q   (e) q. e e e e   q. q. q   (e) q. e e e e
 
  [G]                        [A]  8раз постепенно затухая
|---------|----------------|---------|------------------||
|---------|----------------|---------|----------------o-||
|----9--7-|-(7)-5--3-2-0---|----9--7-|-(7)-5--3-2-0---o-||
|-3-------|--------------2-|-5-------|--------------2---||
  q. q. q   (e) q. e e e e   q. q. q   (e) q. e e e e

    

искать в аптеке
список лекарств

Меховые воротники на Lamoda

Меховое ателье. Меховой салон. Производитель меховых изделий

timohovskiemexa.ru

Лифтинг лица нитями Aptos

Подтяжка лица нитями. Биоармирование, контурная инъекционная пластика

mtval.ru








О сайтеАккордыХит-парадПоискУроки ФорумыИщу песню
ПрограммыСвежачок-сПодпискаСтатьи
Яндекс.Метрика