Табулатура Ария | Антихрист гитара табулатуры уроки тексты песен Ария текст lyrics песня аккорды песни ноты нота электрогитара струна  
   А Б В Г Д Е Ж З И К Л М Н О П Р С Т У Ф Х Ч Ш Ы Э Ю Я       Разные песни
1-9 A B C D E F G H I J K L M N O P Q R S T U V W Y Z      Все исполнители in english

    



группа Ария, Табулатура песни Антихрист

Продолжаем грести бабос на ботах в Telegram.
Только в этот раз есть вариант автоматизировать это дело, привлекая рефералов. Вы можете заработать если »

Группа: Ария - другие аккорды (629),   о группе (7 статей),   диски (18),   фотографии (92)
Табулатура песни: Антихрист
Просмотров: 9416
Прислал: S.Mulder (smulder@pisem.net)




    
Это играют ОНИ...
--------------------------------------------------------------------------------
Measure: 12/8 throughout the whole song.
Tempo: moderately slow (101 bpm)
(0:01 - 0:15)
INTRO: (Play 2 times) (gtr.1 - clean tone)
Gtr.1E||-------------------------------------------------|-------------------------------------------------||
     H||-------------------------------------------------|-------------------------------------------------||
     G||---------0-----------0-----------0-----------0---|---------0-----------0-----------0-----------0---||
     D||-----4-----------4-----------4-----------4-------|-----4-----------4-----------4-----------4-------||
     A||-2-----------2-----------2-----------2-----------|-3-----------3-----------3-----------3-----------||
     E||-------------------------------------------------|-------------------------------------------------||
      ||                                                 |                                                 ||
BellsG||-------------------------------------------------|-------------------------------------------------||
     D||-------------------------------------------------|-------------------------------------------------||
     A||-2-----------------------------------------------|-3-----------------------------------------------||
     E||-------------------------------------------------|-------------------------------------------------||
(0:15 - 0:43)
VERSE 1:
VoiceE|----------------------------------------------------------------------------------------------------|
     H|----------------------------------------------------------------------------------------------------|
     G|----------------------------------------------------------------------------------------------------|
     D|------------------------------------------------------------2-----------2---------------------------|
     A|--2---4---5---2---4---5---2---4---5---2---4---5-----3---5-------3---5-------3-----------------------|
     E| Ya  rozhden byl nochyu v chas molitvy volchyey   v temnom lo -go -ve zve -rey.         ------------|
      |                                                  |                                                 |
Gtr.1E|--------------------------------------------------|-------------------------------------------------|
     H|--------------------------------------------------|-------------------------------------------------|
     G|----------0-----------0-----------0-----------0---|---------0-----------0-----------0-----------0---|
     D|------4-----------4-----------4-----------4-------|-----4-----------4-----------4-----------4-------|
     A|--2-----------2-----------2-----------2-----------|-3-----------3-----------3-----------3-----------|
     E|--------------------------------------------------|-------------------------------------------------|
      |                                                  |                                                 |
BellsG|--------------------------------------------------|-------------------------------------------------|
     D|--------------------------------------------------|-------------------------------------------------|
     A|--2-----------------------------------------------|-3-----------------------------------------------|
     E|--------------------------------------------------|-------------------------------------------------|
 
VoiceE|----------------------------------------------------------------------------------------------------|
     H|----------------------------------------------------------------------------------------------------|
     G|----------------------------------------------------------------------------------------------------|
     D|------------------------------------------------------------2-----------2---------------------------|
     A|--2---4---5---2---4---5---2---4---5---2---4---5-----3---5-------3---5-------3-----------------------|
     E| Chernyy  angel  a - da  byl  so  mnoyu  ryadom    na kru-gah lyudskih strastey.        ------------|
      |                                                  |                                                 |
Gtr.1E|--------------------------------------------------|-------------------------------------------------|
     H|--------------------------------------------------|-------------------------------------------------|
     G|----------0-----------0-----------0-----------0---|---------0-----------0-----------0-----------0---|
     D|------4-----------4-----------4-----------4-------|-----4-----------4-----------4-----------4-------|
     A|--2-----------2-----------2-----------2-----------|-3-----------3-----------3-----------3-----------|
     E|--------------------------------------------------|-------------------------------------------------|
      |                                                  |                                                 |
BellsG|--------------------------------------------------|-------------------------------------------------|
     D|--------------------------------------------------|-------------------------------------------------|
     A|--2-----------------------------------------------|-3-----------------------------------------------|
     E|--------------------------------------------------|-------------------------------------------------|
 
VoiceE|----------------------------------------------------------------------------------------------------|
     H|----------------------------------------------------------------------------------------------------|
     G|----------------------------------------------------------------------------------------------------|
     D|--4---4---4---2---4---2---4---4---4---2---4---2-----5---5---5---4---5---4---5-----------------------|
     A|----------------------------------------------------------------------------------------------------|
     E| Ya proshel skvoz plamya, byl  ognem  i  kamnem,  chervem byl sred\' mertvyh tel.        ------------|
      |                                                  |                                                 |
Gtr.1E|--------------------------------------------------|-------------------------------------------------|
     H|--------------------------------------------------|-------------------------------------------------|
     G|----------0-----------0-----------0-----------0---|---------0-----------0-----------0-----------0---|
     D|------4-----------4-----------4-----------4-------|-----4-----------4-----------4-----------4-------|
     A|--2-----------2-----------2-----------2-----------|-3-----------3-----------3-----------3-----------|
     E|--------------------------------------------------|-------------------------------------------------|
      |                                                  |                                                 |
BellsG|--------------------------------------------------|-------------------------------------------------|
     D|--------------------------4-----------------------|-------------------------------------------------|
     A|--2-----------------------------------------------|-3-----------------------1-----------------------|
     E|--------------------------------------------------|-------------------------------------------------|
 
VoiceE|----------------------------------------------------------------------------------------------------|
     H|----------------------------------------------------------------------------------------------------|
     G|----------------------------------------------------------------------------------------------------|
     D|--4---4---4---2---4---2---4---4---4---2---4---2-----5---5---5---4---5---4---5-----------------------|
     A|----------------------------------------------------------------------------------------------------|
     E| prozvan byl nechistym,   imya  mne   Antichrist.  Ty Christos,ty  na  kreste.          ------------|
      |                                                  |                                                 |
Gtr.1E|--------------------------------------------------|-------------------------------------------------|
     H|--------------------------------------------------|-------------------------------------------------|
     G|----------0-----------0-----------0-----------0---|---------0-----------0-----------0-----------0---|
     D|------4-----------4-----------4-----------4-------|-----4-----------4-----------4-----------4-------|
     A|--2-----------2-----------2-----------2-----------|-3-----------3-----------3-----------3-----------|
     E|--------------------------------------------------|-------------------------------------------------|
      |                                                  |                                                 |
BellsG|--------------------------------------------------|-------------------------------------------------|
     D|--------------------------4-----------------------|-------------------------------------------------|
     A|--2-----------------------------------------------|-3-----------------------1-----------------------|
     E|--------------------------------------------------|-------------------------------------------------|
(0:44 - 0:54)
BRIDGE 1:
VoiceE|----------------------------------------------------------------------------------------------------|
     H|----------------------------------------------------------------------------------------------------|
     G|----------------------------------------------------------------------------------------------------|
     D|--4-----------2-----------0-----------2-------------------------------------------------------------|
     A|----------------------------------------------------5-4-2-------------------------------------------|
     E|  Ooo    -    ooo    -    ooo    -    ooo     -     o-o-o.....   -----------------------------------|
      |                                                  |                                                 |
Gtr.1E|--------------------------------------------------|-------------------------------------------------|
     H|--------------------------------------------------|-------------------------------------------------|
     G|--------------------------------------------------|---------0-----------0-----------0-----------0---|
     D|----------0-----------0-----------0-----------0---|-----4-----------4-----------4-----------4-------|
     A|------2-----------4-----------5-----------4-------|-2-----------2-----------2-----------2-----------|
     E|--3-----------5-----------7-----------5-----------|-------------------------------------------------|
 
VoiceE|--------------------------------------------------|
     H|--------------------------------------------------|
     G|--------------------------------------------------|
     D|--4-----------2-----------0-----------2-----------|
     A|--------------------------------------------------|
     E|  Ooo    -    ooo    -    ooo    -    o.  --------|
      |                                                  |
Gtr.1E|--------------------------------------------------|
     H|--------------------------------------------------|
     G|--------------------------------------R-----------|
     D|----------0-----------0-----------0---E-----------|
     A|------2-----------4-----------5-------S-----------|
     E|--3-----------5-----------7-----------T-----------|
(0:55 - 1:23)
VERSE 2: (Gtr.2 with distortion)
        Bez tebya ya prizrak, chto  iz  hrama   izgnan,   bez  menya  ty skuchnyy mif. 
        No ty pryachesh\' taynu, i v dushe  hrustal\'noy, zna - yu ya, greh smertnyy est\'.
Gtr.1E||-------------------------------------------------|-------------------------------------------------|
     H||-------------------------------------------------|-------------------------------------------------|
     G||---------0-----------0-----------0-----------0---|---------0-----------0-----------0-----------0---|
     D||-----4-----------4-----------4-----------4-------|-----4-----------4-----------4-----------4-------|
     A||-2-----------2-----------2-----------2-----------|-3-----------3-----------3-----------3-----------|
     E||-------------------------------------------------|-------------------------------------------------|
      ||                                                 |                                                 |
Gtr.2E||-------------------------------------------------|-------------------------------------------------|
     H||-------------------------------------------------|-------------------------------------------------|
     G||-------------------------------------------------|-------------------------------------------------|
     D||-4-----------------------------------------------|-5-----------------------------------------------|
     A||-2-----------------------------------------------|-3-----------------------------------------------|
     E||-------------------------------------------------|-------------------------------------------------|
      ||                                                 |                                                 |
Bass G||-------------------------------------------------|-------------------------------------------------|
     D||-------------------------4-----------------------|-------------------------5---4-----------0-------|
     A||-2-----------------------------------------------|-3-------------------------------3---------------|
     E||-------------------------------------------------|-------------------------------------------------|
 
        My s toboy kak bratya v gimnah  i proklyatyah   s vechnoy vlastyu nad lyud\'mi.
        Ya  ne tot kto  vydast, i-mya mne  Antichrist.   Ty Hristos,tyazhyol tvoy krest.
Gtr.1E|--------------------------------------------------|-------------------------------------------------||
     H|--------------------------------------------------|-------------------------------------------------||
     G|----------0-----------0-----------0-----------0---|---------0-----------0-----------0-----------0---||
     D|------4-----------4-----------4-----------4-------|-----4-----------4-----------4-----------4-------||
     A|--2-----------2-----------2-----------2-----------|-3-----------3-----------3-----------3-----------||
     E|--------------------------------------------------|-------------------------------------------------||
      |                                                  |                                                 ||
Gtr.2E|--------------------------------------------------|-------------------------------------------------||
     H|--------------------------------------------------|-------------------------------------------------||
     G|--------------------------------------------------|-------------------------------------------------||
     D|--4-----------------------------------------------|-5-----------------------------------------------||
     A|--2-----------------------------------------------|-3-----------------------------------------------||
     E|--------------------------------------------------|-------------------------------------------------||
      |                                                  |                                                 ||
Bass G|--------------------------------------------------|-------------------------------------------------||
     D|--------------------------4-----------------------|-------------------------5---4-----------0-------||
     A|--2---------------------------------------0---2---|-3-------------------------------3---------------||
     E|--------------------------------------------------|-------------------------------------------------||
(1:23 - 1:33)
BRIDGE 2:
       Kre     -     e      -    e      -    e       -     e-e-est..... 
Gtr.1E|--------------------------------------------------|-------------------------------------------------|
     H|--------------------------------------------------|-------------------------------------------------|
     G|--------------------------------------------------|---------0-----------0-----------0-----------0---|
     D|----------0-----------0-----------0-----------0---|-----4-----------4-----------4-----------4-------|
     A|------2-----------4-----------5-----------4-------|-2-----------2-----------2-----------2-----------|
     E|--3-----------5-----------7-----------5-----------|-------------------------------------------------|
      |                                                  |                                                 |
Bass G|--------------------------------------------------|-------------------------------------------------|
     D|--------------------------------------------------|-------------------------4-----------------------|
     A|--------------------------2-----------------------|-2-----------------------------------------------|
     E|--3-----------5-----------------------5-----------|-------------------------------------------------|
 
         Ooo    -    ooo    -    ooo    -    o.
Gtr.1E|--------------------------------------------------|
     H|--------------------------------------------------|
     G|--------------------------------------R-----------|
     D|----------0-----------0-----------0---E-----------|
     A|------2-----------4-----------5-------S-----------|
     E|--3-----------5-----------7-----------T-----------|
      |                                                  |
Bass G|--------------------------------------R-----------|
     D|--------------------------------------E-----------|
     A|--------------------------2-----------S-----------|
     E|--3-----------5-----------------------T-----------|
(1:33 - 2:01)
VERSE 3:
        Ty kreschen byl krovyu,  ne rechnoy vo - doyu   v pervyy  god sud\'by zem -noy
Gtr.2E|--------------------------------------------------|-------------------------------------------------|
     H|--------------------------------------------------|-------------------------------------------------|
     G|--4---4---4---------------4---4---4---------------|-5---5---5-------------------0-------0-------0---|
     D|--4---4---4---------------4---4---4---------------|-5---5---5-------------------2-------2-------2---|
     A|--2---2---2---------------2---2---2---------------|-3---3---3---------------3-3-3---3-3-3---3-3-3---|
     E|------------------3p2p0-------------------3p2p0---|-----------------3p2p0---.-.->---.-.->---.-.->---|
       Tzar\' terzal mladentzev,  i vzryva - los\' serdtze,slysha skorbnyy zhenskiy voy.
Gtr.2E|--------------------------------------------------|-------------------------------------------------|
     H|--------------------------------------------------|-------------------------------------------------|
     G|--4---4---4---------------4---4---4---------------|-5---5---5-------------------0-------0-------0---|
     D|--4---4---4---------------4---4---4---------------|-5---5---5-------------------2-------2-------2---|
     A|--2---2---2---------------2---2---2---------------|-3---3---3---------------3-3-3---3-3-3---3-3-3---|
     E|------------------3p2p0-------------------3p2p0---|-----------------3p2p0---.-.->---.-.->---.-.->---|
       Tzar\' iskal  Iisu - sa, chtob u - bit\' iskus - no, no  ty  Bogom  byl spasyon.
Gtr.2E|--------------------------------------------------|-------------------------------------------------|
     H|--------------------------------------------------|-------------------------------------------------|
     G|--4---4---4---------------4---4---4---------------|-5---5---5-------------------0-------0-------0---|
     D|--4---4---4---------------4---4---4---------------|-5---5---5-------------------2-------2-------2---|
     A|--2---2---2---------------2---2---2---------------|-3---3---3---------------3-3-3---3-3-3---3-3-3---|
     E|------------------3p2p0-------------------3p2p0---|-----------------3p2p0---.-.->---.-.->---.-.->---|
        Po  peskam  krova - vym nachal put\' svoy k slave. Ty Hristos, velik tvoy tron.
Gtr.2E|--------------------------------------------------|-------------------------------------------------|
     H|--------------------------------------------------|-------------------------------------------------|
     G|--4---4---4---------------4---4---4---------------|-5---5---5-------------------0-------0-------0---|
     D|--4---4---4---------------4---4---4---------------|-5---5---5-------------------2-------2-------2---|
     A|--2---2---2---------------2---2---2---------------|-3---3---3---------------3-3-3---3-3-3---3-3-3---|
     E|------------------3p2p0-------------------3p2p0---|-----------------3p2p0---.-.->---.-.->---.-.->---|
(2:02 - 2:12)
BRIDGE 3:
       Trooo    -    ooo    -    ooo    -    ooo    -    o - o - on.....    
Gtr.2E|--------------------------------------------------|-------------------------------------------------|
     H|--------------------------------------------------|-------------------------------------------------|
     G|--------------------------------------------------|-4---4---4---------------4---4---4---------------|
     D|--------------------------------------------------|-4---4---4---------------4---4---4---------------|
     A|------2-----------4-----------5-----------4-------|-2---2---2-------3p2-----2---2---2-------3p2-----|
     E|--3-------3---5-------5---7-------7---5-------5---|---------------------3p2---------------------3p2-|

         Ooo    -    ooo    -    ooo    -    ooo   -      
Gtr.2E|--------------------------------------------------|
     H|--------------------------------------------------|
     G|--------------------------------------------------|
     D|--------------------------------------------------|
     A|------2-----------4-----------5-----------4-------|
     E|--3-------3---5-------5---7-------7---5-------5---|
Tempo: faster (230 bm).
(2:12 - 2:18)
        oooooooooooooooooooooooooooooooooooooooooooooooooooooooooooooooooooooooooo!!!!!!!!!!!     
Gtr.2E|-------------------------|-------------------------|-------------------------|-------------------------|
     H|-------------------------|-------------------------|-------------------------|-------------------------|
     G|-------------------------|-------------------------|-------------------------|-------------------------|
     D|-------------------------|-------------------------|-------------------------|-------------------------|
     A|-2-2-2-2-2-2-2-2-2-2-2-2-|-2-2-2-2-2-2-2-2-2-2-2-2-|-2-2-2-2-2-2-2-2-2-2-2-2-|-2-2-2-2-2-2-2-2-2-2-2-2-|
     E|-------------------------|-------------------------|-------------------------|-------------------------|
SOLO:
(2:18 - 2:43)
Part A:
Gtr.3E|-------------------------|-------------------------|-------------------------|-------------------------|
     H|-------------------------|-------------------------|-------------------------|-------------------------|
     G|-2-----------0-----------|-2-----------0-----------|-4-----------2-----------|-4-----------2-----------|
     D|---4-2-0-2-4---4-2-0-2-4-|---4-2-0-2-4---4-2-0-2-4-|---4-2-0-2-4---4-2-0-2-4-|---4-2-0-2-4---4-2-0-2-4-|
     A|-------------------------|-------------------------|-------------------------|-------------------------|
     E|-------------------------|-------------------------|-------------------------|-------------------------|
      |                         |                         |                         |                         |
Gtr.2E|-------------------------|-------------------------|-------------------------|-------------------------|
     H|-------------------------|-------------------------|-------------------------|-------------------------|
     G|-------------------------|-------------------------|-------------------------|-------------------------|
     D|-------------------------|-------------------------|-------------------------|-------------------------|
     A|-2-2-2-2-2-2-2-2-2-2-2-2-|-2-2-2-2-2-2-5-5-5-5-5-5-|-------------------------|-------------5-5-5-5-5-5-|
     E|-------------------------|-------------------------|-3-3-3-3-3-3-3-3-3-3-3-3-|-3-3-3-3-3-3-------------|
 
Gtr.3E|-------------------------|-------------------------|-------------------------|-------------------------|
     H|-------------------------|-------------------------|-------------------------|-------------------------|
     G|-6-----------4-----------|-6-----------4-----------|-2-----------0-----------|-2-----------0-----------|
     D|---4-2-0-2-4---4-2-0-2-4-|---4-2-0-2-4---4-2-0-2-4-|---4-2-0-2-4---4-2-0-2-4-|---4-2-0-2-4---4-2-0-2-4-|
     A|-------------------------|-------------------------|-------------------------|-------------------------|
     E|-------------------------|-------------------------|-------------------------|-------------------------|
      |                         |                         |                         |                         |
Gtr.2E|-------------------------|-------------------------|-------------------------|-------------------------|
     H|-------------------------|-------------------------|-------------------------|-------------------------|
     G|-------------------------|-------------------------|-------------------------|-------------------------|
     D|-------------------------|-------------------------|-------------------------|-------------------------|
     A|-------------------------|-------------4-4-4-4-4-4-|-2-2-2-4-4-4-5-5-5-4-4-4-|-2-2-2-------------------|
     E|-5-5-5-5-5-5-5-5-5-5-5-5-|-5-5-5-5-5-5-------------|-------------------------|-------5-5-5-3-3-3-2-2-2-|
 
Gtr.3E|-------------------------|-------------------------|-------------------------|-------------------------|
     H|-------------------------|-------------------------|-------------------------|-------------------------|
     G|-2-----------0-----------|-2-----------0-----------|-4-----------2-----------|-4-----------2-----------|
     D|---4-2-0-2-4---4-2-0-2-4-|---4-2-0-2-4---4-2-0-2-4-|---4-2-0-2-4---4-2-0-2-4-|---4-2-0-2-4---4-2-0-2-4-|
     A|-------------------------|-------------------------|-------------------------|-------------------------|
     E|-------------------------|-------------------------|-------------------------|-------------------------|
      |                         |                         |                         |                         |
Gtr.2E|-------------------------|-------------------------|-------------------------|-------------------------|
     H|-------------------------|-------------------------|-------------------------|-------------------------|
     G|-------------------------|-------------------------|-------------------------|-------------------------|
     D|-------------------------|-------------------------|-------------------------|-------------------------|
     A|-2-2-2-2-2-2-2-2-2-2-2-2-|-2-2-2-2-2-2-5-5-5-5-5-5-|-------------------------|-------------5-5-5-5-5-5-|
     E|-------------------------|-------------------------|-3-3-3-3-3-3-3-3-3-3-3-3-|-3-3-3-3-3-3-------------|
 
Gtr.3E|-------------------------|-------------------------|-------------------------|-------------------------|
     H|-------------------------|-------------------------|-0-0-0-0-0-0-3p0-0-0-0-0-|-5p0-0-0-0-0-7p0-0-0-0-0-|
     G|-6-----------4-----------|-6-----------4-----------|-------------------------|-------------------------|
     D|---4-2-0-2-4---4-2-0-2-4-|---4-2-0-2-4---4-2-0-2-4-|-------------------------|-------------------------|
     A|-------------------------|-------------------------|-------------------------|-------------------------|
     E|-------------------------|-------------------------|-------------------------|-------------------------|
      |                         |                         |                         |                         |
Gtr.2E|-------------------------|-------------------------|-------------------------|-------------------------|
     H|-------------------------|-------------------------|-------------------------|-------------------------|
     G|-------------------------|-------------------------|-------------------------|-------------------------|
     D|-------------------------|-------------------------|-------------------------|-------------------------|
     A|-------------------------|-------------4-4-4-4-4-4-|-------------------------|-------------------------|
     E|-5-5-5-5-5-5-5-5-5-5-5-5-|-5-5-5-5-5-5-------------|-2-2-2-2-2-2-2-2-2-2-2-2-|-2-2-2-2-2-2-2-2-2-2-2-2-|
(2:43 - 3:08)
Part B:
Gtr.3E|--------------------------------------|----------------------------7--------|
     H|--------------------------------------|-------------------------------10p7--|
     G|-9b11---------------9~~~~~~~~~~~~~~~~~|-(9)~~~~~~~~~~~----------------------|
     D|--------------------------------------|-------------------------------------|
     A|--------------------------------------|-------------------------------------|
     E|--------------------------------------|-------------------------------------|
      |                                      |                                     |
Gtr.2E|--------------------------------------|-------------------------------------|
     H|--------------------------------------|-------------------------------------|
     G|--------------------------------------|-------------------------------------|
     D|--------------------------------------|-------------------------------------|
     A|--------------------------------------|-------------------------------------|
     E|--0--0--0--0--0--0--0--0--0--0--0--0--|-0--0--0--0--0--0--0--0--0--0--0--0--|
 
Gtr.3E|--------------------------------------|-------------------------------------|
     H|--10b12...............release10-------|-12-------14p0--0--15p0--0--17b19...-|
     G|-------- hold bend -------------------|----11-11----------------------------|
     D|--------------------------------------|-------------------------------------|
     A|--------------------------------------|-------------------------------------|
     E|--------------------------------------|-------------------------------------|
      |                                      |                                     |
Gtr.2E|--------------------------------------|-------------------------------------|
     H|--------------------------------------|-------------------------------------|
     G|--------------------------------------|-------------------------------------|
     D|--------------------------------------|-------------------------------------|
     A|--2--2--2--4--4--4--5--5--5--4--4--4--|-2--2--2-----------------------------|
     E|--------------------------------------|----------5--5--5--3--3--3--2--2--2--|
 
Gtr.3E|--------------------------------------|-------------------------------------|
     H|..rel17~~~~~~~~~~~~-------15----14----|-15----14h15p14------14~~~~~~~~~~~~----|
     G|--------------------------------------|--------------16---------------------|
     D|--------------------------------------|-------------------------------------|
     A|--------------------------------------|-------------------------------------|
     E|--------------------------------------|-------------------------------------|
      |                                      |                                     |
Gtr.2E|--------------------------------------|-------------------------------------|
     H|--------------------------------------|-------------------------------------|
     G|--------------------------------------|-------------------------------------|
     D|--------------------------------------|-------------------------------------|
     A|--------------------------------------|-------------------------------------|
     E|--5--5--5--0--0--0--5--5--5--0--0--0--|-5--5--5--0--0--0--5--5--5--0--0--0--|
 
Gtr.3E|--------------------------------------|-------------------------------------|
     H|--19p15----------14-18p14----------15-|-19p15----------14-17bend19.........-|
     G|--------16-15-16----------16-15-16----|-------16-15-16------------- hold ---|
     D|--------------------------------------|---------------------------- bend ---|
     A|--------------------------------------|-------------------------------------|
     E|--------------------------------------|-------------------------------------|
      |                                      |                                     |
Gtr.2E|--------------------------------------|-------------------------------------|
     H|--------------------------------------|-------------------------------------|
     G|--------------------------------------|-------------------------------------|
     D|--------------------------------------|-------------------------------------|
     A|--------------------------------------|-------------------------------------|
     E|--2--2--2--2--2--2--2--2--2--2--2--2--|-2--2--2--2--2--2--2--2--2--2--2--2--|
 
                                    T     T       T     T     T     T      
Gtr.3E|-----------------------------19p15-19-|p14-19p15-19p14-19p12-19p10p9p7-9p7\\6-|
     H|..r17~~~~~~~~~~~~---------------------|-------------------------------------|
     G|--------------------------------------|-------------------------------------|
     D|--------------------------------------|-------------------------------------|
     A|--------------------------------------|-------------------------------------|
     E|--------------------------------------|-------------------------------------|
      |                                      |                                     |
Gtr.2E|--------------------------------------|-------------------------------------|
     H|--------------------------------------|-------------------------------------|
     G|--------------------------------------|-------------------------------------|
     D|--------------------------------------|-------------------------------------|
     A|--------------------------------------|-------------------------------------|
     E|--0--0--0--0--0--0--0--0--0--0--0--0--|-0--0--0--0--0--0--0--0--0--0--0--0--|
 
Gtr.3E|--7~~~~~~--7--5-----------7-----------|-A.H.----A.H.------------------------|
     H|-----------------7--6--7-----5--------|-<6>-----<7>-------6--------5--------|
     G|--------------------------------7-p4--|----7-p4-----7-p4-----7-p4-----7-p4--|
     D|--------------------------------------|-------------------------------------|
     A|--------------------------------------|-------------------------------------|
     E|--------------------------------------|-------------------------------------|
      |                                      |                                     |
Gtr.2E|--------------------------------------|-------------------------------------|
     H|--------------------------------------|-------------------------------------|
     G|--------------------------------------|-------------------------------------|
     D|--------------------------------------|-------------------------------------|
     A|--2--2--2--4--4--4--5--5--5--4--4--4--|-2--2--2-----------------------------|
     E|--------------------------------------|----------5--5--5--3--3--3--2--2--2--|
 
Gtr.3E|--------------------------------------|-------------------------------------|
     H|--------------------------------------|-------------------------------------|
     G|--6-----------------6-----------------|-6--------6--------6-----------------|
     D|-----------7-----4-----------7-----4--|----7--4-----7--4--------------------|
     A|--------------------------------------|-------------------------------------|
     E|--------------------------------------|-------------------------------------|
      |                                      |                                     |
Gtr.2E|--------------------------------------|-------------------------------------|
     H|--------------------------------------|-------------------------------------|
     G|--------------------------------------|-------------------------------------|
     D|--------------------------------------|-------------------------------------|
     A|--------------------------------------|-------------------------------------|
     E|--5--5--5--0--0--0--5--5--5--0--0--0--|-5--5--5--0--0--0--5--5--5--0--0--0--|
 
Gtr.3E|--------------------------------------|-------5h6h8--6--5--------------------|
     H|--------5--6--5-----------5--8--6--5--|-6--8--------------8b10rel8----5-----|
     G|--6--7-----------7--6--7--------------|-------------------------------------|
     D|--------------------------------------|-------------------------------------|
     A|--------------------------------------|-------------------------------------|
     E|--------------------------------------|-------------------------------------|
      |                                      |                                     |
Gtr.2E|--------------------------------------|-------------------------------------|
     H|--------------------------------------|-------------------------------------|
     G|--------------------------------------|-------------------------------------|
     D|--------------------------------------|-------------------------------------|
     A|--------------------4--4--4--5--5--5--|-7--7--7--5--5--5--4--4--4-----------|
     E|--2--2--2--5--5--5--------------------|----------------------------5--5--5--|
(3:09 - 3:33)
Part C:
Gtr.3E|-------------------------------5--6--|h8--6--5-----6--5--------------------|
     H|----5--6--8--6--5-----5--6--8--------|----------8--------8--6--5-----6--5--|
     G|-7-----------------7-----------------|----------------------------7--------|
     D|-------------------------------------|-------------------------------------|
     A|-------------------------------------|-------------------------------------|
     E|-------------------------------------|-------------------------------------|
      |                                     |                                     |
Gtr.2E|-------------------------------------|-------------------------------------|
     H|-------------------------------------|-------------------------------------|
     G|-7-----------------------------------|-------------------------------------|
     D|-7-----------------------------------|-------------------------------------|
     A|-5-----------------------------------|-5--5--5--5--5--5--5--5--5--5--5--5--|
     E|-------------------------------------|-.--.--.--.--.--.--.--.--.--.--.--.--|
 
Gtr.3E|-------------------------------------|-------------------------------------|
     H|-------------------------------------|-------------------------------------|
     G|-7--5-----------5--7--5--------5-----|-------------------------------------|
     D|-------8--7--8-----------8--7-----8--|-7--5--------------------------------|
     A|-------------------------------------|-------8--7--5-----------------------|
     E|-------------------------------------|----------------8--5//--pick sl------|
      |                                     |                                     |
Gtr.2E|-------------------------------------|-------------------------------------|
     H|-------------------------------------|-------------------------------------|
     G|-2-----------------------------------|-------------------------------------|
     D|-2-----------------------------------|/7--------5--------3--------2--------|
     A|-0-----------------------------------|----0--0-----0--0-----0--0-----0--0--|
     E|-------------------------------------|----.--.-----.--.-----.--.-----.--.--|
 
Gtr.3E|-------------------------------------|-----------22\\\\\\---------------------|
     H|----------------------------12-------|-----------20\\\\\\---------------------|
     G|----------12----------------12-------|-------------------------------------|
     D|----9--12-12-------------9-----------|--------17---------------------------|
     A|-10-------------------10-------------|---14/17-----------------------------|
     E|-------------------10----------------|-15-------------------15\\-- sl ------|
      |                   .  .  .           |  . .    .                           |
Gtr.2E|-------------------------------------|-------------------------------------|
     H|-------------------------------------|-------------------------------------|
     G|-------------------------------------|-------------------------------------|
     D|-5-----------------------------------|-------------------------------------|
     A|-5-----------------------------------|-------------------------------------|
     E|-3-----------------------------------|-3--3--3--3--3--3--3--3--3--3--3--3--|
                                              .  .  .  .  .  .  .  .  .  .  .  .
 
Gtr.3E|----------12-10----------------------|-------------------------------------|
     H|----9--12-------13-12-10-9-----------|-------------------------------------|
     G|--9------------------------10--9--7--|-------------------------------------|
     D|-------------------------------------|-10--9--7--6-------------------------|
     A|-------------------------------------|-------------8--7--------------------|
     E|-------------------------------------|-------------------8--7--5--7--------|
      |                                     |                                     |
Gtr.2E|-------------------------------------|-------------------------------------|
     H|-------------------------------------|-------------------------------------|
     G|-------------------------------------|-------------------------------------|
     D|-2-----------------------------------|-------------------------------------|
     A|-2-----------------------------------|/7--------5--------3--------2--------|
     E|-0-----------------------------------|----0--0-----0--0-----0--0-----0--0--|
                                                 .  .     .  .     .  .     .  .
 
Gtr.3E|-5--6-----5--------------------------|-5--6-----5--------------------------|
     H|-------8-----6--8--5--6-----5--6--8--|-------8-----6--8--5--6-----5--6--8--|
     G|-------------------------7-----------|-------------------------7-----------|
     D|-------------------------------------|-------------------------------------|
     A|-------------------------------------|-------------------------------------|
     E|-------------------------------------|-------------------------------------|
      |                                     |                                     |
Gtr.2E|-------------------------------------|-------------------------------------|
     H|-------------------------------------|-------------------------------------|
     G|-7-----------------------------------|-------------------------------------|
     D|-7-----------------------------------|-------------------------------------|
     A|-5-----------------------------------|-5--5--5--5--5--5--5--5--5--5--5--5--|
     E|-------------------------------------|-.--.--.--.--.--.--.--.--.--.--.--.--|
 
Gtr.3E|-------------------------------------|---------------12h13h15p13p12\\10------------|
     H|-5--6-----5--------------------------|---------/12h13h15-----------13p12p10-------|
     G|-------7-----5--7--4--5--------------|-7--/9h10h12----------------------12p10p9-|
     D|-------------------------7-----------|-------------------------------------|
     A|-------------------------------------|-------------------------------------|
     E|-------------------------------------|-------------------------------------|
      |                                     |                                     |
Gtr.2E|-------------------------------------|-------------------------------------|
     H|-------------------------------------|-------------------------------------|
     G|-2-----------------------------------|-------------------------------------|
     D|-2-----------------------------------|/7--------5--------3--------2--------|
     A|-0-----------------------------------|----0--0-----0--0-----0--0-----0--0--|
     E|-------------------------------------|----.--.-----.--.-----.--.-----.--.--|
 
Gtr.3E|-------------------------------------|-------------------------------------|
     H|-------------------------------------|--- wide vibrato --------------------|
     G|-------------------------------------|-12~~~~~~/\\/\\/\\\\\\\\\\------------------|
     D|-9--------12----9-h12----------------|-12~~~~~~/\\/\\/\\\\\\\\\\------------------|
     A|----------------------------10-------|-------------------------------------|
     E|-------------------------------------|-------------------------------------|
      |                                     |                                     |
Gtr.2E|-------------------------------------|-------------------------------------|
     H|-------------------------------------|-------------------------------------|
     G|-------------------------------------|-------------------------------------|
     D|-5-----------------------------------|-------------------------------------|
     A|-5-----------------------------------|-------------------------------------|
     E|-3-----------------------------------|-3--3--3--3--3--3--3--3--3--3--3--3--|
                                              .  .  .  .  .  .  .  .  .  .  .  .
 
Gtr.3E|-------------------------------------|-------------------------------------|
     H|-------------------------------------|-------------------------------------|
     G|-7h10p7---10--9----5h8p5----8--7-----|7h10p7----10--9----5h8p5---<7>~~~~---|
     D|-------10-------10-------8--------8--|-------10-------10-------8-----------|
     A|-------------------------------------|-------------------------------------|
     E|-------------------------------------|-------------------------------------|
(3:34 - 3:45)
Part D:
Gtr.2E||-------------------------------------|-------------------------------------||
     H||-------------------------------------|-------------------------------------||
     G||-------------------------------------|-------------------------------------||} Play
     D||-------------------------------------|-6--6-----5--------4--4-----3--------||}  2
     A||-2-h4-h5--2-h4-h5--2-h4-h5--2-h4-h5--|-------7-----6--6--------5-----4--4--||} times
     E||-------------------------------------|-------------------------------------||
Play next line with 2 guitars:
Gtr.2E||-------------------------------------|-------------------------------------||
Gtr.3H||-------------------------------------|-------------------------------------||
     G||-------------------------------------|-------------------------------------||} Play
     D||-0-h2-h4--0-h2-h4--0-h2-h4--0-h2-h4--|-6--6-----5--------4--4-----3--------||}  2
     A||-2-h4-h5--2-h4-h5--2-h4-h5--2-h4-h5--|-------7-----6--6--------5-----4--4--||} times
     E||-------------------------------------|-------------------------------------||
END OF SOLO.
(3:46 - 3:58)
INTERLUDE:
       Dlya milli - onov   ty  ne  vinoven,  moy zhe otetz - Satana.
Gtr.2E|--------------------------------------|-------------------------------------|
Gtr.3H|-----------R--------------------------|-------------------------------------|
     G|--4-----4--E--------------------------|-5-----------------------------------|
     D|--4-----4--S--------------------------|-5-----------------------------------|
     A|--2-----2--T--------------------------|-3-----------------------------------|
     E|--------------------------------------|-------------------------------------|
 
        No Padshiy Angel   bogu byl raven,  mstit\' za nego budu ya.
Gtr.2E|--------------------------------------|-------------------------------------|
Gtr.3H|-----------R--------------------------|-------------------------------------|
  +  G|--4-----4--E--------------------------|-5-----------------------------------|
bass D|--4-----4--S--------------------------|-5-----------------------------------|
     A|--2-----2--T--------------------------|-3-----------------------------------|
     E|--------------------------------------|-------------------------------------|
 
       No my sochtemsya, v bitve soydemsya v god samoy gor\'koy zvezdy.
Gtr.2E|--------------------------------------|-------------------------------------|
Gtr.3H|--------------------------------------|-------------------------------------|
     G|--------------------------------------|-------------------------------------|
     D|--0-h2-h4--0-h2-h4--0-h2-h4--0-h2-h4--|-6--6-----5--------4--4-----3--------|
     A|--2-h4-h5--2-h4-h5--2-h4-h5--2-h4-h5--|-------7-----6--6--------5-----4--4--|
     E|--------------------------------------|-------------------------------------|
      |                                      |                                     |
Bass G|-----------R--------------------------|-------------------------------------|
     D|-----------E--------------------------|-------------------------------------|
     A|--2-----2--S--------------------------|-3-----------------------------------|
     E|-----------T--------------------------|-------------------------------------|
 
       Znayu  naverno,    ruhnu ya pervym,  tol\'ko pogibnesh\' i ty.
Gtr.2E|--------------------------------------|-------------------------------------|
Gtr.3H|--------------------------------------|-------------------------------------|
     G|--------------------------------------|-------------------------------------|
     D|--0-h2-h4--0-h2-h4--0-h2-h4--0-h2-h4--|-6--6-----5--------4--4-----3--------|
     A|--2-h4-h5--2-h4-h5--2-h4-h5--2-h4-h5--|-------7-----6--6--------5-----4--4--|
     E|--------------------------------------|-------------------------------------|
      |                                      |                                     |
Bass G|-----------R--------------------------|-------------------------------------|
     D|-----------E--------------------------|-------------------------------------|
     A|--2-----2--S--------------------------|-3-----------------------------------|
     E|-----------T--------------------------|-------------------------------------|
(3:58 - 4:23)
MAIN CHORUS:
VoiceE||---------------------------------------------------------------------------|
     H||---------------------------------------------------------------------------|
     G||---------------------------------------------------------------------------|
     D||--4----------------2-------------------0-----------------2-----------------|
     A||---------------------------------------------------------------------------|
     E|| I       -       mya                 mne                 An     -         -|
      ||                                     |                                     |
Gtr.2E||-------------------------------------|-------------------------------------|
     H||-------------------------------------|-------------------------------------|
     G||-------------------------------------|-------------------------------------|
     D||-------------------------------------|-------------------------------------|
     A||-2--2--2--2--2--2--2--2--2--2--2--2--|-2--2--2--2--2--2--5--5--5--5--5--5--|
     E||-------------------------------------|-------------------------------------|
 
VoiceE|----------------------------------------------------------------------------|
     H|----------------------------------------------------------------------------|
     G|----------------------------------------------------------------------------|
     D|--0-------------------------------------------------------------------------|
     A|-----------2----------------------------------------------------------------|
     E| tich  -  rist,     --------------------------------------------------------|
      |                                      |                                     |
Gtr.2E|--------------------------------------|-------------------------------------|
     H|--------------------------------------|-------------------------------------|
     G|--------------------------------------|-------------------------------------|
     D|--------------------------------------|-------------------------------------|
     A|--------------------------------------|-------------------5--5--5--5--5--5--|
     E|--3--3--3--3--3--3--3--3--3--3--3--3--|-3--3--3--3--3--3--------------------|
 
VoiceE|----------------------------------------------------------------------------|
     H|----------------------------------------------------------------------------|
     G|----------------------------------------------------------------------------|
     D|---4----------------2-------------------0-----------------2-----------------|
     A|----------------------------------------------------------------------------|
     E| znak              moy                tzif       -       ra                -|
      |                                      |                                     |
Gtr.2E|--------------------------------------|-------------------------------------|
     H|--------------------------------------|-------------------------------------|
     G|--------------------------------------|-------------------------------------|
     D|--------------------------------------|-------------------------------------|
     A|--------------------------------------|-------------------4--4--4--4--4--4--|
     E|--5--5--5--5--5--5--5--5--5--5--5--5--|-5--5--5--5--5--5--------------------|
 
VoiceE|----------------------------------------------------------------------------|
     H|----------------------------------------------------------------------------|
     G|----------------------------------------------------------------------------|
     D|----------------------------------------------------------------------------|
     A|---2------------------------------------------------------------------------|
     E| shest\'....       shest\'.....         shest\'...      -----------------------|
      |                                      |                                     |
Gtr.2E|--------------------------------------|-------------------------------------|
     H|--------------------------------------|-------------------------------------|
     G|--------------------------------------|-------------------------------------|
     D|--------------------------------------|-------------------------------------|
     A|--2--2--2--4--4--4--5--5--5--4--4--4--|-2--2--2-----------------------------|
     E|--------------------------------------|----------5--5--5--3--3--3--2--2--2--|
 
VoiceE|----------------------------------------------------------------------------|
     H|----------------------------------------------------------------------------|
     G|----------------------------------------------------------------------------|
     D|---4----------------2-------------------0-----------------2-----------------|
     A|----------------------------------------------------------------------------|
     E|- I       -       mya                 mne                 An     -         -|
      |                                      |                                     |
Gtr.2E|--------------------------------------|-------------------------------------|
     H|--------------------------------------|-------------------------------------|
     G|--------------------------------------|-------------------------------------|
     D|--------------------------------------|-------------------------------------|
     A|--2--2--2--2--2--2--2--2--2--2--2--2--|-2--2--2--2--2--2--5--5--5--5--5--5--|
     E|--------------------------------------|-------------------------------------|
 
VoiceE|----------------------------------------------------------------------------|
     H|----------------------------------------------------------------------------|
     G|----------------------------------------------------------------------------|
     D|--0-------------------------------------------------------------------------|
     A|-----------2----------------------------------------------------------------|
     E| tich  -  rist,     --------------------------------------------------------|
      |                                      |                                     |
Gtr.2E|--------------------------------------|-------------------------------------|
     H|--------------------------------------|-------------------------------------|
     G|--------------------------------------|-------------------------------------|
     D|--------------------------------------|-------------------------------------|
     A|--------------------------------------|-------------------5--5--5--5--5--5--|
     E|--3--3--3--3--3--3--3--3--3--3--3--3--|-3--3--3--3--3--3--------------------|
 
VoiceE|----------------------------------------------------------------------------|
     H|----------------------------------------------------------------------------|
     G|----------------------------------------------------------------------------|
     D|---4----------------2-------------------0-----------------2-----------------|
     A|----------------------------------------------------------------------------|
     E| plach\'     -      te                   o                du    -           -|
      |                                      |                                     |
Gtr.2E|--------------------------------------|-------------------------------------|
     H|--------------------------------------|-------------------------------------|
     G|--------------------------------------|-------------------------------------|
     D|--------------------------------------|-------------------------------------|
     A|--------------------------------------|-------------------4--4--4--4--4--4--|
     E|--5--5--5--5--5--5--5--5--5--5--5--5--|-5--5--5--5--5--5--------------------|
 
VoiceE|----------------------------------------------------------------------------||
     H|----------------------------------------------------------------------------||
     G|----------------------------------------------------------------------------||
     D|---4------------------------------------------------------------------------||
     A|----------------------------------------------------------------------------||
     E| sheeeeeeeeeeeeeeeeeeeeeeeee.......                                     ----||
      |                                      |                                     ||
Gtr.2E|--------------------------------------|-------------------------------------||
     H|--------------------------------------|-------------------------------------||
     G|--------------------------------------|-------------------------------------||
     D|--------------------------------------|-------------------------------------||
     A|--------------------------------------|-------------------------------------||
     E|--2--2--2--2--2--2--2--2--2--2--2--2--|-2--2--2--2--2--2--2--2--2--2--2--2--||
(4:23 - 4:48) Repeat MAIN CHORUS; add gtr.3 from part A of SOLO and with choir singing.
(4:48 - 5:01)
OUTRO:
Gtr.E|--------------------------------------|-------------------------------------|
    H|--------------------------------------|-------------------------------------|
    G|--------------------------------------|-------------------------------------|
    D|--------------------------------------|-6--6-----5--------4--4-----3--------|
    A|--2-h4-h5--2-h4-h5--2-h4-h5--2-h4-h5--|-------7-----6--6--------5-----4--4--|
    E|--------------------------------------|-------------------------------------|
Gtr.E|-- 14/8 measure ----------------------------|----14/8 measure -----------------------------..
    H|--------------------------------------------|----------------------------------------------..
    G|-----------R--------------------R-----------|----------R--------------------R--------------..
    D|-----------E--------------------E-----------|----------E--------------------E--fading down-..
    A|--2-----2--S-----------3-----3--S-----------|-2-----2--S-----------3-----3--S--------------..
    E|--2-----2--T-----------3-----3--T-----------|-2-----2--T-----------3-----3--T--------------..

--------------------------------------------------------------------------------

  
    

найти лекарство
список лекарств






О сайтеАккордыХит-парадПоискУроки ФорумыИщу песню
ПрограммыСвежачок-сПодпискаСтатьи
Яндекс.Метрика