Табулатура Ария | Мертвая Зона гитара табулатуры уроки тексты песен Ария текст lyrics песня аккорды песни ноты нота электрогитара струна  
   А Б В Г Д Е Ж З И К Л М Н О П Р С Т У Ф Х Ч Ш Ы Э Ю Я       Разные песни
1-9 A B C D E F G H I J K L M N O P Q R S T U V W Y Z      Все исполнители in english

    



группа Ария, Табулатура песни Мертвая Зона

Продолжаем грести бабос на ботах в Telegram.
Только в этот раз есть вариант автоматизировать это дело, привлекая рефералов. Вы можете заработать если »

Группа: Ария - другие аккорды (629),   о группе (7 статей),   диски (18),   фотографии (92)
Табулатура песни: Мертвая Зона
Просмотров: 2902
Прислал: S.Mulder (smulder@pisem.net)




    
Это играют ОНИ....
Tempo: slow (83 bpm)
INTRO:
(0:01 - 0:12)
RIFF 1:
Gtr.1E|--------------------------------|---------------------------------|
     H|--------------------------------|---------------------------------|
     G|--------------------------------|---------------------------------|
     D|--4-------5---4---3-------------|-2--------4---2----------4-------|
     A|--2-----------------------------|-2----------------4--------------|
     E|--------------------------------|-0-------------------------------|
Gtr.1E|--------------------------------|---------------------------------|
     H|--------------------------------|---------------------------------|
     G|--------------------------------|---------------------------------|
     D|--4-------5---4---3-------------|-2--------4---2---4--------------|
     A|--2-----------------------------|-2-------------------------------|
     E|--------------------------------|-0-------------------------------|
(0:13 - 0:23)
RIFF 1A: (another guitar adds the higher harmonic)
Gtr.1E|--------------------------------|---------------------------------|
     H|--------------------------------|---------------------------------|
     G|--------------------------------|---------------------------------|
     D|--4-------5---4---3-------------|-2--------4---2----------4-------|
     A|--2-----------------------------|-2----------------4--------------|
     E|--------------------------------|-0-------------------------------|
      |                                |                                 |
Gtr.2E|--------------------------------|---------------------------------|
     H|--------------------------------|---------------------------------|
     G|---------12--11--10-------------|-9--------11--9---------11-------|
     D|--9-----------------------------|-----------------11--------------|
     A|--------------------------------|---------------------------------|
     E|--------------------------------|---------------------------------|
 
Gtr.1E|--------------------------------|---------------------------------|-- 2/4 measure -|
     H|--------------------------------|---------------------------------|----------------|
     G|--------------------------------|---------------------------------|----------------|
     D|--4-------5---4---3-------------|-2--------4---2---4--------------|-(4)------------|
     A|--2-----------------------------|-2-------------------------------|----------------|
     E|--------------------------------|-0-------------------------------|----------------|
      |                                |                                 |                |
Gtr.2E|--------------------------------|---------------------------------|----------------|
     H|--------------------------------|---------------------------------|----------------|
     G|---------12--11--10-------------|-9--------11--9--11--------------|-(11)-----------|
     D|--9-----------------------------|---------------------------------|----------------|
     A|--------------------------------|---------------------------------|----------------|
     E|--------------------------------|---------------------------------|----------------|
(0:26 - 0:50)
RIFF 2:
Gtr.E|----------------------------------|---------------------------------|
    H|----------------------------------|---------------------------------|
    G|----------------------------------|-----------------4-----4---------|
    D|--9-----9---------7-----7---------|-5-----5---------4-----4---------|
    A|--9-----9---------7-----7---------|-5-----5---------2-2-2-2---------|
    E|--7-7-7-7---------5-5-5-5---------|-3-3-3-3-------------------------|
 
Gtr.E|----------------------------------|---------------------------------|
    H|----------------------------------|---------------------------------|
    G|--4---------------7-----6---------|-4~~~~~~~~---------4-7-----6-9---|
    D|--5---------------------------7---|-----------------5-------7-------|
    A|--5-------------------------------|---------------------------------|
    E|--3-------------------------------|---------------------------------|
     |                                  |                                 |
BassG|----------------------------------|---------------------------------|
    D|----------------------------------|---------------------------------|
    A|------------------5-----4---------|---------------------------------|
    E|------------------------------5---|-7---7-7-7---7---3-3-3---5-5-5---|
 
Gtr.E|----------------------------------|---------------------------------|
+   H|----------------------------------|---------------------------------|
BassG|----------------------------------|-----------------4-----4---------|
    D|--9-----9---------7-----7---------|-5-----5---------4-----4---------|
    A|--9-----9---------7-----7---------|-5-----5---------2-2-2-2---------|
    E|--7-7-7-7---------5-5-5-5---------|-3-3-3-3-------------------------|
 
Gtr.E|----------------------------------|---------------------------------|
    H|------------------5-----------5---|-7-------------------------------|
    G|--4---------------------7---------|---------------------------------|
    D|--5-------------------------------|---------------------------------|
    A|--5-------------------------------|---------------------------------|
    E|--3-------------------------------|---------------------------------|
     |                                  |                                 |
BassG|----------------------------------|---------------------------------|
    D|----------------------------------|-4---4-4-4---4---4-4-4-----------|
    A|------------------7-----5-----7---|-------------------------5-5-5---|
    E|--3---3-3-3---3-------------------|---------------------------------|
(0:50 - 1:36)
VERSE 1:
VoiceE|----------------------------------|---------------------------------|
     H|--7-----7---------5---------------|---------------------------------|
     G|--------------7---------7-----6---|-7-----4---------4---7---4-------|
     D|----------------------------------|-------------7-------------------|
     A|----------------------------------|---------------------------------|
     E| Mne   ni  - kogda     ne    voy - ti  v  e  - tot sa - a - ad,  v -|
      |                                  |                                 |
Gtr. E|----------------------------------|---------------------------------|
     H|----------------------------------|---------------------------------|
     G|----------------------------------|-----------------4-----4---------|
     D|--9-----9---------7-----7---------|-5-----5---------4-----4---------|
     A|--9-----9---------7-----7---------|-5-----5---------2-2-2-2---------|
     E|--7-7-7-7---------5-5-5-5---------|-3-3-3-3-------------------------|
 
VoiceE|----------------------------------|---------------------------------|
     H|----------------------------------|---------------------------------|
     G|--------------4---7-----6---------|-4-------------------------------|
     D|--5-----7---------------------7---|---------------------------------|
     A|----------------------------------|---------------------------------|
     E| nem   net tzve -tov  dlya   me - nya.       -----------------------|
      |                                  |                                 |
Gtr. E|----------------------------------|---------------------------------|
     H|----------------------------------|---------------------------------|
     G|--4---------------7-----6---------|-4~~~~~~~~---------4-7-----6-9---|
     D|--5---------------------------7---|-----------------5-------7-------|
     A|--5-------------------------------|---------------------------------|
     E|--3-------------------------------|---------------------------------|
 
VoiceE|----------------------------------|---------------------------------|
     H|--7-----5---------5---------------|---------------------------------|
     G|--------------7---------7-----6---|-4------------7--4---------------|
     D|----------------------------------|---------------------------------|
     A|----------------------------------|---------------------------------|
     E| Ya    ne  - na -vi - zhu  shty  - ki            ograd,    ---------|
      |                                  |                                 |
Gtr. E|----------------------------------|---------------------------------|
     H|----------------------------------|---------------------------------|
     G|----------------------------------|-----------------4-----4---------|
     D|--9-----9---------7-----7---------|-5-----5---------4-----4---------|
     A|--9-----9---------7-----7---------|-5-----5---------2-2-2-2---------|
     E|--7-7-7-7---------5-5-5-5---------|-3-3-3-3-------------------------|
 
VoiceE|----------------------------------|---------------------------------|
     H|------------------5---------------|---------------------------------|
     G|--4-----6------7--------7-----6---|-6-------------------------------|
     D|----------------------------------|---------------------------------|
     A|----------------------------------|---------------------------------|
     E| byushchih v splete -  ni  -  e  dnya.      ------------------------|
      |                                  |                                 |
Gtr. E|----------------------------------|---------------------------------|
 +   H|----------------------------------|---------------------------------|
bass G|--4-------------------------------|------- this stuff just on bass -|
     D|--5-------------------------------|-----------------4-4-4-----------|
     A|--5---------------7-----5-----7---|-4---4-4-4---4-----------5-5-5---|
     E|--3-------------------------------|---------------------------------|
 
      Mne     ne hva - ta - et     v   zakry - tyh      sada - a - ah
Gtr. E|----------------------------------|---------------------------------|
     H|----------------------------------|---------------------------------|
     G|----------------------------------|-----------------4-----4---------|
     D|--9-----9---------7-----7---------|-5-----5---------4-----4---------|
     A|--9-----9---------7-----7---------|-5-----5---------2-2-2-2---------|
     E|--7-7-7-7---------5-5-5-5---------|-3-3-3-3-------------------------|
        voz - duha,    rvush - che - go  plot\'.
Gtr. E|----------------------------------|---------------------------------|
     H|----------------------------------|---------------------------------|
     G|--4---------------7-----6---------|-4~~~~~~~~---------4-7-----6-9---|
     D|--5---------------------------7---|-----------------5-------7-------|
     A|--5-------------------------------|---------------------------------|
     E|--3-------------------------------|---------------------------------|
       Kto    slab   dusho - yu,   spe - shit         syuda,        ne  v
Gtr. E|----------------------------------|---------------------------------|
     H|----------------------------------|---------------------------------|
     G|----------------------------------|-----------------4-----4---------|
     D|--9-----9---------7-----7---------|-5-----5---------4-----4---------|
     A|--9-----9---------7-----7---------|-5-----5---------2-2-2-2---------|
     E|--7-7-7-7---------5-5-5-5---------|-3-3-3-3-------------------------|
        si - lah   se - bya   po - bo - ro - ot\',  net...
Gtr. E|----------------------------------|---------------------------------|
     H|----------------------------------|----------2---3---2h3p2h3--------|
     G|--4-------------------------------|------3------------trill---------|
     D|--5-------------------------------|-4-------------------------------|
     A|--5---------------7-----5-----7---|---------------------------------|
     E|--3-------------------------------|---------------------------------|
(1:36 - 1:59)
CHORUS: (chords implied by bass)
VoiceE|-------------------------------------------------------------------|
     H|--8--------------7-------8----7---5----5-------5-------7-----------|
     G|-------------------------------------------------------------------|
     D|-------------------------------------------------------------------|
     A|-------------------------------------------------------------------|
     E|- Sad           ne     pri - du - u - man    mno  -   yu,    ------|
      |                                 |                                 |
Gtr. E|-G---------------Fm#-------------|-Em----------------------Fm#-----|
     H|---------------------------------|---------------------------------|
     G|-7---7---7---7---7---7---7---7---|---------------------------------|
     D|---5---5---5---5---4---4---4---4-|-5---5---5---5---5---5---7---7---|
     A|---------------------------------|---7---7---7---7---7---7---9---9-|
     E|---------------------------------|---------------------------------|
 
VoiceE|-----------------------------------5-------------------------------|
     H|--8--------------7-------8--------------8---7---5------------------|
     G|-------------------------------------------------------------------|
     D|-------------------------------------------------------------------|
     A|-------------------------------------------------------------------|
     E|- Oooooo    -    on     re    -    a - len kak ty  ----------------|
      |                                 |                                 |
Gtr. E|-G---------------Fm#-------------|-A-------------------------------|
     H|---------------------------------|---------------------------------|
     G|-7---7---7---7---7---7---7---7---|---------------------------------|
     D|---5---5---5---5---4---4---4---4-|-7---7---7---7---7---7---7-5-4-5-|
     A|---------------------------------|---7---7---7---7---7---7---------|
     E|---------------------------------|---------------------------------|
 
VoiceE|-------------------------------------------------------------------|
     H|--8--------------7-------8----7---5------5------7------8-----------|
     G|-------------------------------------------------------------------|
     D|-------------------------------------------------------------------|
     A|-------------------------------------------------------------------|
     E| No             ty       i - de - esh\' spo  -  koy  - no        v  |
      |                                 |                                 |
Gtr. E|---------------------------------|---------------------------------|
     H|---------------------------------|---------------------------------|
     G|-7---7---7---7---7---7---7---7---|---------------------------------|
     D|---5---5---5---5---4---4---4---4-|-5---5---5---5---5---5---7---7---|
     A|---------------------------------|---7---7---7---7---7---7---9---9-|
     E|---------------------------------|---------------------------------|
 
VoiceE|-------------------------------------------------------------------|
     H|--7---8---7---5--------------------7---8---7---5-------------------|
     G|---------------------7---6-----------------------------7---6-------|
     D|-------------------------------------------------------------------|
     A|-------------------------------------------------------------------|
     E| sad pus-to-ty   -   y - y,        o - o - o - o   -   o - o...  --|
      |                                 |                                 |
Gtr. E|---------------------------------|---------------------------------|
     H|-7---8---7---5-------------------|---------------------------------|
     G|---------------------7---6-------|---------------------------------|
     D|---------------------------------|-4---5---4-----------------------|
     A|---------------------------------|-------------7-------5---4-------|
     E|---------------------------------|---------------------------------|
(1:59 - 2:22) RIFF 2
(2:23 - 3:09) VERSE 2
(3:09 - 3:32) CHORUS
(3:32 - 3:44)
BassG|--4---4---4---4---4---4---4---4---|-4---4---4---4---4---4---4---4---|
    D|----4---4---4---4---4---4---4---4-|---4---4---4---4---4---4---4---4-|
    A|----------------------------------|---------------------------------|
    E|----------------------------------|---------------------------------|
BassG|--4---4---4---4---4---4---4---4---|-4---4---4---4---4---4---4---4---|
    D|----4---4---4---4---4---4---4---4-|---4---4---4---4---4---4---4---4-|
    A|----------------------------------|---------------------------------|
    E|----------------------------------|---------------------------------|
SOLO:
(3:44 - 4:31)
Part A: (*2 times; second time articulate the chords w/volume knob)
Gtr.E||---------------------------------|---------------------------------|
    H||-7-------------------------------|-6-------------------------------|
    G||-7-------------------------------|-7-------------------------------|
    D||-9-------------------------------|-9-------------------------------|
    A||---------------------------------|---------------------------------|
    E||---------------------------------|---------------------------------|
     ||                                 |                                 |
BassG||-4---4---4---4---4---4---4---4---|-4---4---4---4---4---4---4---4---|
    D||---4---4---4---4---4---4---4---4-|---4---4---4---4---4---4---4---4-|
    A||---------------------------------|---------------------------------|
    E||---------------------------------|---------------------------------|
 
Gtr.E|----------------------------------|---------------------------------|
    H|--5-------------------------------|-4-------------------------------|
    G|--4-------------------------------|-4-------------------------------|
    D|--4-------------------------------|-4-------------------------------|
    A|----------------------------------|---------------------------------|
    E|----------------------------------|---------------------------------|
     |                                  |                                 |
BassG|--4---4---4---4---4---4---4---4---|-4---4---4---4---4---4---------2-|
    D|----4---4---4---4---4---4---4---4-|---4---4---4---4---4-----4-2-4---|
    A|----------------------------------|-----------------------2---------|
    E|----------------------------------|---------------------------------|
 
Gtr.E|----------------------------------|---------------------------------|
    H|--3-------------------------------|-2-------------------------------|
    G|--4-------------------------------|-4-------------------------------|
    D|--4-------------------------------|-3-------------------------------|
    A|--2-------------------------------|-2-------------------------------|
    E|----------------------------------|---------------------------------|
     |                                  |                                 |
BassG|--4---4---4---4---4---4---4---4---|-4---4---4---4---4---4---4---4---|
    D|----4---4---4---4---4---4---4---4-|---4---4---4---4---4---4---4---4-|
    A|----------------------------------|---------------------------------|
    E|----------------------------------|---------------------------------|
 
Gtr.E|----------------------------------|-0-------------------------------||
    H|--5-------------------------------|-2-------------------------------||
    G|--4-------------------------------|-3-------------------------------||
    D|--4-------------------------------|-4-------------------------------||
    A|--2-------------------------------|---------------------------------||
    E|----------------------------------|---------------------------------||
     |                                  |                                 ||
BassG|--4---4---4---4---4---4---4---4---|---------------------------------||
    D|----4---4---4---4---4---4---4---4-|-4---4---4---4---4---4---4---4---||
    A|----------------------------------|---4---4---4---4---4---4---4---4-||
    E|----------------------------------|---------------------------------||
(4:31 - 4:54)
Part B:
Gtr.E|-------------------------------------------------|-------------------------------------------------|
    H|-------------------------------------------------|-------------------------------------------------|
    G|-------------4--7--7--4--7-----------------------|-----------4b5r4p2----2--4--2--------------------|
    D|-------------------------------------------------|---------0---------3-----------3-----------------|
    A|-------------------------------------------------|-------------------------------------------------|
    E|-------------------------------------------------|-------------------------------------------------|
Gtr.E|-------------------------------------------------|-------------------------------------------------|
    H|----------5--------------------------------------|-------------------------------------------------|
    G|-------2-----4-----------------------------------|-(4)---------------------------------------------|
    D|-0--3--------------------------------------------|-------------------------------------------------|
    A|-------------------------------------------------|-------------------------------------------------|
    E|-------------------------------------------------|-------------------------------------------------|
Gtr.E|-------------------------------------------------|-------------------------------------------------|
    H|-3~~~~~~~~~~~~~~~~~~~~~~~~~~~~~~~~~~~~~~~~~~~--3bend5...release3-----------------------------------|
    G|-4~~~~~~~~~~~~~~~~~~~~~~~~~~~~~~~~~~~~~~~~~~~----|-------------------2-----------------------------|
    D|-------------------------------------------------|-------------------------------------------------|
    A|-------------------------------------------------|-------------------------------------------------|
    E|-------------------------------------------------|-------------------------------------------------|
Gtr.E|-------------------------------------------------|------------------------/9-----------------------|
    H|----------5--------------------------------------|-------------------------------------------------|
    G|-------2-----4--------------------------4-h6--4--|-3~~~~~~~~~~~~~----------------------------------|
    D|-0--3--------------------------------------------|-------------------------------------------------|
    A|-------------------------------------------------|-------------------------------------------------|
    E|-------------------------------------------------|-------------------------------------------------|
(4:54 - 5:05)
INTERLUDE 1:
      Tam  est\' vsyo,  tol\'ko net   dushi.             Vmes - to rosy    belyy zhemchug drozhit
Gtr.E|-------------------------------------------------|-------------------------------------------------|
    H|-------------------------------------------------|-------------------------------------------------|
    G|-------------------------------------------------|-------------------------------------------------|
    D|-4-----------------------3-----------------------|-2-----------------------1-----------------------|
    A|-2-----------------------2-----------------------|-2-----------------------2-----------------------|
    E|-------------------------------------------------|-------------------------------------------------|
       Robot   ptitz     voskovyh storozhit.            Sad  vsem diktuyet   zako   -   ny.
Gtr.E|-----------2-------------------------------------|-------------------------------------------------|
    H|-----------3-------------------------------------|-------------------------------------------------|
    G|--------4----------------------------------------|-------------------------------------------------|
    D|-----4--.----------------3-----------------------|-2-----------------------4-----------------------|
    A|--2--.-------------------2-----------------------|-2-----------------------4-----------------------|
    E|--.----------------------------------------------|-0-----------------------2-----------------------|
(5:06 - 5:17) Repeat RIFF 1
(5:17 - 5:28) Repeat RIFF 1A
(5:28 - 5:41) INTERLUDE 2:
      Dumat\' o  buduschem     net   prichin.           Proshlaya zhizn\' pod kontrolem   mashin.   
Gtr.E|-------------------------------------------------|-------------------------------------------------|
    H|-------------------------------------------------|-------------------------------------------------|
    G|-------------------------------------------------|-------------------------------------------------|
    D|-4-----------------------3-----------------------|-2-----------------------1-----------------------|
    A|-2-----------------------2-----------------------|-2-----------------------2-----------------------|
    E|-------------------------------------------------|-------------------------------------------------|
       Ty   vy -ho -dish\'  iz sada zhivym,         no v serdtze -  myort - vaya zo   -   na.
Gtr.E|-----------2-------------------------------------|-------------------------------------------------|
    H|--------3--3-------------------------------------|-------------------------------------------------|
    G|--------4----------------------------------------|-------------------------------------------------|
    D|-----4-------------------3-----------------------|-2-----------------------4-----------------------|
    A|--2--.-------------------2-----------------------|-2-----------------------4-----------------------|
    E|--.----------------------------------------------|-0-----------------------2-----------------------|
Gtr.E|-- 2/4 measure ----------|
    H|-------------------------|
    G|-------------------------|
    D|-4--5--4--2--------------|
    A|-------------5--4--2--0--|
    E|-------------------------|
(5:42 - 5:52)
BRIDGE:
VoiceE|--------------------------------------------------------------------------------------------------|
     H|--------------------------------------------------------------------------------------------------|
     G|--------------------------------------------------------------------------------------------------|
     D|-------------------2-------------------------------2-----2-2-2---4-------2------------------------|
     A|---5---------------------4--------------------5----------------------------5---4------------------|
     E| Proch\'           be  - gi,                  po - ka   hvatayet sil,    begi - i    --------------|
      |                                                 |                                                |
Gtr. E|-2-----------------0-----------------------------|------------------------------------------------|
     H|-3-----------------3-----2-----------------3-----|-5-----------------5----------------------------|
     G|-2-----------------------2-----------------2-----|-4-----------------4----------------------------|
     D|-0-----------------------2-----------------2-----|-2-----------------2-----4----------------------|
     A|-------------------------0-----------0--0--0-----|-2-----------------------4-----------2-h4-p2-p0-|
     E|-------------------------------------------------|-0-----------------------2----------------------|
 
VoiceE|--------------------------------------------------------------------------------------------------|
     H|--------------------------------------------------------------------------------------------------|
     G|--------------------------------------------------------------------------------------------------|
     D|-------------------2------------------------------------------------------------------------------|
     A|--5----------------------4-----------------2----0-2------------2--4--5--2--4----------------------|
     E| Na               vos - hod,            v sad zhivo      -     o -o -o -o -oy       --------------|
      |                                                 |                                                |
Gtr. E|-2-----------------0-----------------------------|------------------------------------------------|
     H|-3-----------------3-----2-----------------------|------------------------------------------------|
     G|-2-----------------------2-----------------2-----|-4-----------------6-/7-\\6----------------------|
     D|-0-----------------------2-----------------2-----|-4-----------------6-/7-\\6----------------------|
     A|-------------------------0-----------0--0--0-----|-2-----------------4-/5-\\4----------------------|
     E|-------------------------------------------------|------------------------------------------------|
(5:53 - 6:04) Repeat BRIDGE
(6:04 - 6:22)
BRIDGE 1:
   Proch\'    be - gi,           po - ka hvatayet sil begi
E|-2-----------0-------------------|---------------------------------|
H|-3-----------3---2-----------3---|-5-----------5-------------------|
G|-2---------------2-----------2---|-4-----------4-------------------|
D|-0---------------2-----------2---|-2-----------2---4---------------|
A|-----------------0-------0-0-0---|-2---------------4---------------|
E|---------------------------------|-0---------------2---------------|
   Na         vos-hod,    v sad zhivo - o - o - o - o  -  o - oy
E|-2-----------0-------------------|---------------------------------|
H|-3-----------3---2---------------|-7---8---7---5-------------------|
G|-2---------------2---------------|---------------------7---6-------|
D|-0---------------2---------------|---------------------------------|
A|-----------------0---------------|---------------------------------|
E|---------------------------------|---------------------------------|
E|---------------------------------|---------------------------------|
H|-7---8---7---5-------------------|-------------- ritenuto ---------|
G|---------------------7---6-------|---------------------------------|
D|---------------------------------|-4---5---4-----------------------|
A|---------------------------------|-------------7-------5---4-------|
E|---------------------------------|---------------------------------|
(6:22 - 6:37)
OUTRO:
E|- H5 ------- free time -------------------------------------------|
H|--------------------------4-------4-7p4h7p4h7p4h7p4h7..-----------|
G|----------------------4-------4-----------------------------------|
D|--4---------------4-----------------------------------------------|
A|--2-------2---5---------------------------------------------------|
E|------------------------------------------------------------------|
--------------------------------------------------------------------------------
  
    

искать в аптеке
список лекарств






О сайтеАккордыХит-парадПоискУроки ФорумыИщу песню
ПрограммыСвежачок-сПодпискаСтатьи
Яндекс.Метрика