Табулатура Deep Purple | Maybe I`m A Leo гитара табулатуры уроки тексты песен Deep Purple текст lyrics песня аккорды песни ноты нота электрогитара струна  
   А Б В Г Д Е Ж З И К Л М Н О П Р С Т У Ф Х Ч Ш Ы Э Ю Я       Разные песни
1-9 A B C D E F G H I J K L M N O P Q R S T U V W Y Z      Все исполнители

    



группа Deep Purple, Табулатура песни Maybe I`m A Leo

Группа: Deep Purple - другие аккорды (86),   о группе (2 статей),   диски (24),   фотографии (10)
Табулатура песни: Maybe I`m A Leo
Просмотров: 2600
Прислал: Pilgrim (pilgrim@akkords.ru)




    
Maybe I'm A Leo
(Blackmore/Gillan/Glover/Lord/Paice)
From "Machine Head", 1972
x = dead note
Normal Tuning.
Riff 1
e||------------------------|------------------------|
B||------------------------|------------------------|
G||------------------1-----|------------------3--1--|
D||--3--3-1----1--3-----3--|--3--3-1----1--3--------|
A||---------3--------------|---------3--------------|
E||------------------------|------------------------|
                                        Eb F
 e|------------------------|------------------||
 B|------------------------|------------------||
 G|------------------------|------------3--5--||
 D|------------------1-----|------------1--3--||
 A|--3--3-1----1--3-----3--|--3--3-1----------||
 E|---------3--------------|---------3--------||
                           |            Eb Bb ||
        ...the second time:|------------------||
                           |------------------||
                           |------------3-----||
                           |------------1--3--||
                           |--3--3-1-------1--||
                           |---------3--------||
                       end of riff 1
 
Riff 2(for the verse)
e||-----------------------------|-------------------------||
B||-----------------------------|-------------------------||
G||-0---------------------------|---0---------------------||
D||-----3-1-----1---3-----------|-------3-1-----1---------||
A||---------3-----------1---3---|-----------3-----------1-||
E||-----------------------------|-------------------------||
    .   .   .   .   .   .   .   .   .   .   .   .   .   .  =rhythm
Verse:
     C
e||-----||
B||-----||
G||-----|| And ,just after "I had a big surprise" play riff 2
D||--5--||
A||--3--||
E||-----||
Then
     F                                   G
e||-----|| e||-----||

Продолжаем грести бабос на ботах в Telegram.
Только в этот раз есть вариант автоматизировать это дело, привлекая рефералов. Вы можете заработать если »

B||-----|| B||-----|| G||--5--|| And riff 2,and then G||--7--|| And riff 2 D||--3--|| D||--5--|| A||-----|| A||-----|| E||-----|| E||-----|| Chorus: F Eb D C C / / / where is she now e||----------------------|-------------------|| B||----------------------|-------------------|| G||----------------------|-------------------|| D||--10-----8---7----5---|---5--5------5--5--|| A||--8------6---5----3---|---3--3------3--3--|| E||----------------------|-------------------|| x x x x ============================================= Riff 1 - better with the rhythm (the rhythm is given by . . (under the tab)). e||-----------------------------|-----------------------------| B||-----------------------------|-----------------------------| G||---------------------1-------|-----------------------3---1-| D||-3---3-1-----1---3-------3---|---3---3-1-----1---3---------| A||---------3-------------------|-----------3-----------------| E||-----------------------------|-----------------------------| . . . . . . . . . . . . . . . Eb F e|-----------------------------|-------------------------|| B|-----------------------------|-------------------------|| G|-----------------------------|---------------3-------5-|| D|---------------------1-------|---------------1-------3-|| A|-3---3-1-----1---3-------3---|---3---3-1---------------|| E|---------3-------------------|-----------3-------------|| . . . . . . . | . . . . . . || | || | Eb Bb|| ...the second time:|-------------------------|| |-------------------------|| |---------------3---------|| |---------------1-------3-|| |---3---3-1-------------1-|| |-----------3-------------|| . . . . . . end of riff 1 Philippe Magnier








О сайтеАккордыХит-парадПоискУроки ФорумыИщу песню
ПрограммыСвежачок-сПодпискаСтатьи
Яндекс.Метрика