Табулатура Deep Purple | Wring That Neck гитара табулатуры уроки тексты песен Deep Purple текст lyrics песня аккорды песни ноты нота электрогитара струна  
   А Б В Г Д Е Ж З И К Л М Н О П Р С Т У Ф Х Ч Ш Ы Э Ю Я       Разные песни
1-9 A B C D E F G H I J K L M N O P Q R S T U V W Y Z      Все исполнители

    



группа Deep Purple, Табулатура песни Wring That Neck

Группа: Deep Purple - другие аккорды (86),   о группе (2 статей),   диски (24),   фотографии (10)
Табулатура песни: Wring That Neck
Просмотров: 1705
Прислал: Pilgrim (pilgrim@akkords.ru)




    
Wring That Neck
(Blackmore/Evans/Lord/Paice)
From "The Book of Taliesyn", 1968
E||------------------------||---6--3--------------------|
B||---------------3-6-3----||------------------3h6h3----|
G||------------0--------0--||*--------------0--------0--|
D||------------------------||*--------------------------|
A||------------------------||---------------------------|
E||------------------------||---------------------------|

--6--3--------------------|--6--3-----------6--3-----------|
-----------------3h6h3----|--------3h6h3----------3h6h3----|
--------------0--------0--|--------------0--------------0--|
--------------------------|--------------------------------|
--------------------------|--------------------------------|
--------------------------|--------------------------------|

--6--3-----------------6--|--9/-8h-6--8--6-------------6--|
-----------------6--8-----|----------------------6--8-----|
--------------7-----------|-------------------7-----------|
--------------------------|-------------------------------|
--------------------------|-------------------------------|
--------------------------|-------------------------------|

--9/-8h-6--8--6----------------|--4h-3-----3-------------------|
-------------------------3--6--|--------6-----6----------3--6--|
-------------------0--3--------|-------------------0--3--------|
-------------------------------|-------------------------------|
-------------------------------|-------------------------------|
-------------------------------|-------------------------------|

-------------------------|-----------------------------3--4--6--|
--5--3-------------------|--------------------3--4--6-----------|

Продолжаем грести бабос на ботах в Telegram.
Только в этот раз есть вариант автоматизировать это дело, привлекая рефералов. Вы можете заработать если »

--------5--3--2----------|-----------2--3--5--------------------| -------------------------|--1--3--5-----------------------------| -------------------------|--------------------------------------| -------------------------|--------------------------------------| --5~---------------|-----------------------------3--4--6--|--5~---------------| -------------------|--------------------3--4--6-----------|-------------------| -------------------|-----------2--3--5--------------------|-------------------| -------------------|--1--3--5-----------------------------|-------------------| -------------------|--------------------------------------|-------------------| -------------------|--------------------------------------|-------------------| -------------------------|-------------------------------| --8----6-----6-----------|-------------------------------| ----------7-----7--5--7--|-------3--5--7--5--3-----------| -------------------------|----7-----------------7--5--3--| -------------------------|-------------------------------| -------------------------|-------------------------------| 99x ----------------------|----------------------------||----|| ------------5---------|------------------3-6-3-----||----|| -------3----5------3--|---------------0--------0--*||----|| --5----5----5------5--|----5--6--7----------------*||----|| -------5----3------5--|----3--4--5-----------------||----|| -------3-----------3--|----------------------------||----|| Zoran Dimitrijevic








О сайтеАккордыХит-парадПоискУроки ФорумыИщу песню
ПрограммыСвежачок-сПодпискаСтатьи
Яндекс.Метрика