Табулатура Deep Purple | Mandrake Root гитара табулатуры уроки тексты песен Deep Purple текст lyrics песня аккорды песни ноты нота электрогитара струна  
   А Б В Г Д Е Ж З И К Л М Н О П Р С Т У Ф Х Ч Ш Ы Э Ю Я       Разные песни
1-9 A B C D E F G H I J K L M N O P Q R S T U V W Y Z      Все исполнители

    



группа Deep Purple, Табулатура песни Mandrake Root

Группа: Deep Purple - другие аккорды (86),   о группе (2 статей),   диски (24),   фотографии (10)
Табулатура песни: Mandrake Root
Просмотров: 1830
Прислал: Pilgrim (pilgrim@akkords.ru)




    
Mandrake Root
(Blackmore/Evans/Lord)
From "Shades Of Deep Purple", 1968
Riff 1
e|-----------------------------0-----
B|-----------------------------3-----
G|------7~---------------------2-----
D|--7h9~---9p7s5h7-------------1-----
A|-----------------7p5h7-------2-----
E|-----------------------------0-----

Riff 2
e|---------0-----------0-----------0-------------
B|---------8-----------8-----------8-------------
G|---------7-----------7-----------7-------------
D|---------6-----------6-----------6-------------
A|---------7-----------7-----------7-----5-6~----
E|--0--0--------0--0--------0--0---------5-6~----

Riff 3
e|-------5-------5-------7-------2-------3-------5-------7-----
B|-------7-------5-------7-------2-------3-------5-------7-----

Продолжаем грести бабос на ботах в Telegram.
Только в этот раз есть вариант автоматизировать это дело, привлекая рефералов. Вы можете заработать если »

G|-------7-------6-------7-------3-------4-------6-------7----- D|-------7-------7-------9-------4-------5-------7-------9----- A|--5-5--5-------7-------9-------4-------5-------7-------9----- E|--5-5------5-5-----7-7-----2-2-----3-3-----5-5-----7-7------- Riff 4 e|---------------------------------------------------------- B|---------------------------------------------------------- G|---------------------------------------------------------- D|----------------------(8-7)------------------------------- A|--5---6-7---5---5----5-8-7-----5---6-7---5---5~--5--2~---- E|--5---6-7-----7---7------------5---6-7-----7-----5--2~---- e|---------------------------------------------------------- B|---------------------------------------------------------- G|---------------------------------------------------------- D|----------------------(8-7)------------------------------- A|--5---6-7---5---5----5-8-7-------------------------------- E|--5---6-7-----7---7--------------------------------------- Tabbed by Kristiaan Böhm

Бонхарен инструкция хранение
Инструкции по эксплуатации
vet-house.com







О сайтеАккордыХит-парадПоискУроки ФорумыИщу песню
ПрограммыСвежачок-сПодпискаСтатьи
Яндекс.Метрика