Табулатура Deep Purple | When A Blind Man Cries  (2) гитара табулатуры уроки тексты песен Deep Purple текст lyrics песня аккорды песни ноты нота электрогитара струна  
   А Б В Г Д Е Ж З И К Л М Н О П Р С Т У Ф Х Ч Ш Ы Э Ю Я       Разные песни
1-9 A B C D E F G H I J K L M N O P Q R S T U V W Y Z      Все исполнители

    



группа Deep Purple, Табулатура песни When A Blind Man Cries (2)

Группа: Deep Purple - другие аккорды (86),   о группе (2 статей),   диски (24),   фотографии (10)
Табулатура песни: When A Blind Man Cries (2)
Просмотров: 2158
Прислал: Pilgrim (pilgrim@akkords.ru)




    
when a blind man cries
intro
   Bm     Em     Bm      Em      Bm           Em     Bm        
-----------------------------------------------------------------
----------------------7-10b12----10b12-10------------------------
-----9b11---------6s7---------------------9b11-7-----------------
-7-9------------------------------------------------7-9--------7-
-----------------------------------------------------------7h9---
-----------------------------------------------------------------
verses
Bm                                A           Bm
------------------------------------------0---------7-
-------3----------------3---------------2---------7---
-----4---4------2-----4---4---4-------2-----2---7-----
---4--------2h4-----4-------4-------2---------9-------
-2----------------2-------------2-0-------------------
------------------------------------------------------
(1)if youre leaving close the door im not expecting people anymore
(2)had a friend once in a room had a good time but it ended much to soon
                                   A          Bm        
---------7----------------7-------------------------7--
-------7----------------7-------------------------7----
-----7----------------7-------------------------7------
-7-9--------------7-9-----------9--11-------7-9--------
-------------------------------------------------------
-5-7--------------5-7-----------7--9--------5-7--------
hear me grieving lying on the floor whether im dead or drunk i really aint to sure
in a cold month in that room found a reason for the things we had to do
chorus
Bm             D5          G5           Em
-------------------------------7---10-9-7--------0-------
-----3-----------5b7---------8---8--------8--------0-----
-------4-2-4---------------7----------------9--------0---
---4-----------0-----------------------------------------
-2-------------------------------------------------------
-------------------------------------------------------0-
(1)im a blind man im a blind man and my world is pale
(2)im a blind man im a blind man now my romm is cold
Bm               D              G            Bm
---------2---------------------------------------------------
-------3---3-------------------------------------------------
-----4-------4--------7-------7----------------------------7-
---4----------------7---7---7----5--4------------9-------9---
-2-------------2--5-------5------------7--5----9---9---9-----
---------------------------------------------7-------7-------
when a blind man cries lord you know there aint a sadder tale
when a blind man cries lord you know he feels it from his soul
solo
Bm

Продолжаем грести бабос на ботах в Telegram.
Только в этот раз есть вариант автоматизировать это дело, привлекая рефералов. Вы можете заработать если »

--------------------------------------------------------------------------------- --------------------------------10----------------------------------------------- -9b11-9b11-9b11-9b11-9b11-9b11-----9b11r9-7--9b11-9b11-9b11-9b11--9b11r9-7------- --------------------------------------------------------------------------------- --------------------------------------------------------------------------------- --------------------------------------------------------------------------------- A Bm -------------------------------------------------------7-10-10b12-10-9-7------ --------------------7-10-10b12-10b12-10b12-10b12--7-10-------------------7-10- -6-7--7b9---7-6--------------------------------------------------------------- ----------------9------------------------------------------------------------- ------------------------------------------------------------------------------ ------------------------------------------------------------------------------ A Bm --------7-------------------------------------------- ------7---7------------------------------------------ -9b11-------7----9-7h9p7-6--7--7b9r7--------------7-- --------------9-----------------------9--7--9--9----- ----------------------------------------------------- ----------------------------------------------------- Bm D5 G5 ------------------------------------------------------10-------------10------- ------------------------------------------------10b12----10b12-10b12----10b12- -9b11-9b11-9b11-9b11-----7-9b11-9b11-9b11-9b11-------------------------------- -----------------------9------------------------------------------------------ ------------------------------------------------------------------------------ ------------------------------------------------------------------------------ Em Bm D5 ---------------10b12--10--10~b12--10~b12-10-7----------------------------- -10b12-10b12-----------------------------------10-------------10---------- --------------------------------------------------9b11-9b11------9b11r9-7- -------------------------------------------------------------------------- -------------------------------------------------------------------------- -------------------------------------------------------------------------- G Bm ---------------------------------12b14-12b14r12-10- --------------------------10b12-------------------- -9b11-9---7--9b11-9-7---7-------------------------- --------9-------------9---------------------------- --------------------------------------------------- ---------------------------------------------------








О сайтеАккордыХит-парадПоискУроки ФорумыИщу песню
ПрограммыСвежачок-сПодпискаСтатьи
Яндекс.Метрика