Табулатура Deep Purple | Wasted Sunsets гитара табулатуры уроки тексты песен Deep Purple текст lyrics песня аккорды песни ноты нота электрогитара струна  
   А Б В Г Д Е Ж З И К Л М Н О П Р С Т У Ф Х Ч Ш Ы Э Ю Я       Разные песни
1-9 A B C D E F G H I J K L M N O P Q R S T U V W Y Z      Все исполнители

    



группа Deep Purple, Табулатура песни Wasted Sunsets

Группа: Deep Purple - другие аккорды (86),   о группе (2 статей),   диски (24),   фотографии (10)
Табулатура песни: Wasted Sunsets
Просмотров: 1916
Прислал: Pilgrim (pilgrim@akkords.ru)




    
Wasted Sunsets
(Blackmore/Gillan/Glover)
From "Perfect Strangers", 1984
(1' Solo)
E||------------8(10)-8-|--7-8-7-5---5--------5-----------|
B||--------------------|----------8---8(10)----8-6-5-6-5-|
G||--------------------|---------------------------------|
D||--------------------|---------------------------------|
A||--------------------|---------------------------------|
E||--------------------|---------------------------------|

----------------------10-|---12-13---12(13)12-10----12(13)12-------|
---------------------x---|-----------------------------------------|
--7(9)7---5-57~----x----|-----------------------------------------|
-------------------x-----|-----------------------------------------|
-------------------------|-----------------------------------------|
-------------------------|-----------------------------------------|

10(12)---9-10-9-7---------15(17)|-15(17)(17)(17)(17)(17) 15(17) |------------------------|
------------------9-------------|-------------------------------|--15(17)--15(18)--15----|
--------------------9~----------|-------------------------------|------------------------|
--------------------------------|-------------------------------|------------------------|
--------------------------------|-------------------------------|------------------------|
--------------------------------|-------------------------------|------------------------|

|---13--15---13-15-13---12-13-12---10-12-10---8-10-8---7-8-7---5-7-5-|
|--x-----------------------------------------------------------------|
|-x------------------------------------------------------------------|
|x-------------------------------------------------------------------|
|--------------------------------------------------------------------|
|--------------------------------------------------------------------|

--4-5-4-5--7--5-5-7--5--4--4--|
------------------------------|
------------------------------|
------------------------------|

Продолжаем грести бабос на ботах в Telegram.
Только в этот раз есть вариант автоматизировать это дело, привлекая рефералов. Вы можете заработать если »

------------------------------| ------------------------------| |-----------------------------------------------------------------------------------| |-5-68--6-8-6-8-6-8-6-8-6-8-6-8-6-8---6--5-------5-------5(6)--5-3-5-3-5-3-5-3-----| |--------------------------------------------57-----7------------------------------| |-----------------------------------------------------------------------------------| |-----------------------------------------------------------------------------------| |-----------------------------------------------------------------------------------| |-------------------------------------------------------------------------7-8-7-----| |-------3-5--35---78--7-8-7-8-7-8-7-8-7-8-7-8----------------10(13)---------------| |---4-5--------------------------------------------10-8-8---------------------------| |-----------------------------------------------------------------------------------| |-----------------------------------------------------------------------------------| |-----------------------------------------------------------------------------------| |-----15(17)(17)15--12--17-15-17----15---12-15---15-13--12-----12-13-12-------------| |-10-------------------------------------------------------15------------13(15)(16)-| |-----------------------------------------------------------------------------------| |-----------------------------------------------------------------------------------| |-----------------------------------------------------------------------------------| |-----------------------------------------------------------------------------------| |------------------------------------------------------------------------------------------15(17)~~~|| |--15(17)15--13--15(17)--15(17)--(15)13-----12-13-12-----1210----10-----12-13-12-13-15-13----------|| |---------------------------------------14-----------14---------12----12----------------------------|| |---------------------------------------------------------------------------------------------------|| |---------------------------------------------------------------------------------------------------|| |---------------------------------------------------------------------------------------------------|| Tablature by: Silvio Lutti , Transcription by: Danilo Lutti








О сайтеАккордыХит-парадПоискУроки ФорумыИщу песню
ПрограммыСвежачок-сПодпискаСтатьи
Яндекс.Метрика