Табулатура Deep Purple | Strange Kind Of Woman гитара табулатуры уроки тексты песен Deep Purple текст lyrics песня аккорды песни ноты нота электрогитара струна  
   А Б В Г Д Е Ж З И К Л М Н О П Р С Т У Ф Х Ч Ш Ы Э Ю Я       Разные песни
1-9 A B C D E F G H I J K L M N O P Q R S T U V W Y Z      Все исполнители

    



группа Deep Purple, Табулатура песни Strange Kind Of Woman

Группа: Deep Purple - другие аккорды (86),   о группе (2 статей),   диски (24),   фотографии (10)
Табулатура песни: Strange Kind Of Woman
Просмотров: 1882
Прислал: Pilgrim (pilgrim@akkords.ru)




    
	                   	Strange kind of Woman
			(BlackmoreGillianGloverLordPaice)			
						Deep Purple(1971)
			from'Deepest Purple-The best of'
						transcribed by Rympu
saw a request somewhere so here goes. listen tape for timing,specially on solo
legend:
h-hammer on
p- pull off
bf- full bends
bq- quarter bends
r- release
x-mute
 and/ -slides
~- vibrato
This transcription is by ear and I think its quite complete
intro
e--10--7--------------7-------------------|--------------------
B--------10---7----7----10--9--7----------|--------------------
G---------------9----------------10--9---7|-----9--7-----------
D-----------------------------------------|--9--------9--7-----
A-----------------------------------------|-----------------9--
E-----------------------------------------|--------------------

e----------------|------------|
B----------------|---------10-|
G--9--7----------|---------9--|
D--------9--7----|----9-x--8--|
A--------------9-|----7-x--9--|
E----------------|------------|
verse riff
preferably with fingers
e--------------------------|------------------------------------|
B--------------------------|------------------------------------|
G----9-9---7-9---9-9---7-9-|----7---7---7---7---5----5-----7----|
D----9-9---7-9---9-9---7-9-|----7---7---7---7---5----5-----7----|
A--7-----7-----7-----7-----|--7---5---5---5---3----3----3-------|
E--------------------------|------------------------------------|
"there once.."
chorus
The quarter bends are doubled by bass
e--------------------------------------|
B--------------------------------------|
G----7(bq)--9(bq)---9(bq)---9(bq)------|
D--9---9-9----9--9----9--9-------9-----|
A--------------------------------------|
E--7-----7-------7-------7-------------|
                                                         
"oo strange..woman"      Fill....
e--------------------|---------------------------------|
B--------------------|---------------------------------|		
G--5-5-5-5--7-7-7-7--|----------7---12(bf)---9~~-------|
D--5-5-5-5--7-7-7-7--|---7--9--------------------------|
A--------------------|-9-------------------------------|
E--------------------|---------------------------------|
                      fill first time in chorus

 quiet bridge(the "oo oo" part) 
   E  /  C  /  D  /  E
solo 1:
Its not 100%  correct but its close.Dont flame me for mistakes.
The measures are not quite accurate.
e----------------------|-----------------------|
B----------------------|-----------------------|
G----------------------|---------------12(bf)--|
D----12--12----14(bf)--|----12--12---------14--|
A-14--------14-----14-|-14---------14---------|
E----------------------|-----------------------|
e-----------------------|----------------------------|
B-----------------------|----------------------------|
G-----------12-14-14(bf)|----12----12----------------|
D-----12-14-------------|-14----14---14----14-12-----|
A-14-------------------|------------------------14~-|
E-----------------------|----------------------------|

e----------------------------|-------------------------------|
B----------------------------|-------------------------------|
G---------------14(bf)-12----|------12-14-12-14-12-14-14(bf)-|
D-----12-12---------------14-|-12h14--------------------hold-|
A-14-------14---------------|-------------------------------|
E----------------------------|-------------------------------|
e--------------------------------
B--slowly release----------------
G-14r--12----12------------------
D---------14----14--------12-----
A----------------------------14--
E--------------------------------

e------------------|
B------------------|
G------------------|

Продолжаем грести бабос на ботах в Telegram.
Только в этот раз есть вариант автоматизировать это дело, привлекая рефералов. Вы можете заработать если »

D--12----14-12-----| A-----14-------14~-| E------------------| e--------------------------------------|---------------------------| B------------17(bf)-15-12--------------|---------------------------| G---------12--------------14-12----12~-|-12h14-12-14-12------------| D---12-14-----------------------14-----|---------------14-12~~-----| A-14-----------------------------------|---------------------------| E--------------------------------------|---------------------------| e------------------------------------------------------------------| B------------------------------------------------------------------| G---------12---12-14-12----12---12-16-14-12-14-12---12-14-16-16(bf)| D---12-14----14----------14---14------------------14---------------| A-14---------------------------------------------------------------| E------------------------------------------------------------------| e---------------------| B--12(bf)hold---------| G-----16-14-12-14-12--| D---------------------| A---------------------| E---------------------| e----------------|------------------------------------| B----------------|-12(bf)hold-------------------------| G----12h14p14----|---16-14-12-14-12-----12h14p12------| D-------------14~|-------------------------------14~--| A----------------|------------------------------------| E----------------|------------------------------------| e------------------------------8-7p5h7p5--12(bf)-| B----------------------9--12---------------------| G---------12----12-14----------------------------| D---12-14----14----------------------------------| A-14---------------------------------------------| E------------------------------------------------| outro solo:: e---------slow-release-----|---------------------------------------------| B-prebend-15-15-15-15/-12-|------------------------------------12(bf)---| G--------------------------|----12-14-14-12----14-12----14-12---------12~| D--------------------------|-14-------------14-------14------14----------| A--------------------------|---------------------------------------------| E--------------------------|---------------------------------------------| e--------------------------------|----------------------------| B--------------------------------|----------------------------| G---12-14-14-12---16-14-12-14(bf)|-16-14-12-17-16-14-12h14p12-| D-14------------14---------------|----------------------------| A--------------------------------|----------------------------| E--------------------------------|----------------------------| e-------------------|-----------------------------------------------| B---------15(bf)-12~|-----------------------------------------------| G----12-14----------|-12-14-12-----12-------12-14-14-12-------------| D-14----------------|-----------14----14--14------------14--12(bf)--| A-------------------|-----------------------------------------------| E-------------------|-----------------------------------------------| e-------------------------------12-|-14-12------------------------------| B--------------------12-14-14-16---|-------16-16-14-12-12---------------| G------------12-14-14--------------|----------------------14-12-16p14p12| D---12-14-14-----------------------|------------------------------------| A-14-------------------------------|------------------------------------| E----------------------------------|------------------------------------| e-12(bf)--------------12(bf)-------------------| B----12-------------------12-------------------| G-------12h14p12---12~--------12h14p12---------| D----------------14---------------------14~~---| A----------------------------------------------| E----------------------------------------------| e-------------------------------------| B-------------------------------------| G----------12(bf)------------14(bf)---| D-12-14-14----14-12-14-14--------14---| A-------------------------------------| E-------------------------------------| Fade out starts with layered guitars and I get confused...bye All criticisms at baijantab@mantramail.com








О сайтеАккордыХит-парадПоискУроки ФорумыИщу песню
ПрограммыСвежачок-сПодпискаСтатьи
Яндекс.Метрика