Табулатура Deep Purple | Stormbringer гитара табулатуры уроки тексты песен Deep Purple текст lyrics песня аккорды песни ноты нота электрогитара струна  
   А Б В Г Д Е Ж З И К Л М Н О П Р С Т У Ф Х Ч Ш Ы Э Ю Я       Разные песни
1-9 A B C D E F G H I J K L M N O P Q R S T U V W Y Z      Все исполнители

    



группа Deep Purple, Табулатура песни Stormbringer

Группа: Deep Purple - другие аккорды (86),   о группе (2 статей),   диски (24),   фотографии (10)
Табулатура песни: Stormbringer
Просмотров: 1623
Прислал: Pilgrim (pilgrim@akkords.ru)




    
Stormbringer
(Blackmore/Coverdale)
From "Stormbringer", 1974
Intro (couple of times)
E|--------------------------------------------------------7-6-5-3----------------
B|-----7-7-7-5-7-7-7-5-7-7-7-5-7-7-7---7-7-7-5-7-7-7--7-5------------------------
G|---5-------------------------------5-------------------------------------------
D|-------------------------------------------------------------------------------
A|-------------------------------------------------------------------------------
e|-------------------------------------------------------------------------------
next part (Ritchie plays this part once later, but mini-solo is changed then)
E|----------|------10-------10-------10-------10----------------------10-12-14-15-17
B|----------|10h12----10h12----10h12----10h12----12-10h11h12p10----12---------------
G|----------|---------------------------------------------------12------------------
D|------5-4-|-----------------------------------------------------------------------
A|--2-5-3-2-|-----------------------------------------------------------------------
e|--0-3-----|-----------------------------------------------------------------------

E|---------|----------------------------------------------------------------------
B|---------|----------------------------------------------------------------------
G|---------|----------------------------------------------------------------------
D|-----7---|----------------------------------------------------------------------
A|-2-5-5-7-|---------5--------------------------------5------------------5--7-5~~-
e|-0-3---5-|-5-7-7-7---7-7-7-5-7-7-7-5-7-7-7--5-7-7-7---7-7-7-5-7-7-7--7--7-------

E|-------------------------------------------------------------------------------
B|-------------------------------------------------------------------------------
G|-------------------------------------------------------------------------------

Продолжаем грести бабос на ботах в Telegram.
Только в этот раз есть вариант автоматизировать это дело, привлекая рефералов. Вы можете заработать если »

D|------------------------------------------------------------------------------- A|---3---5-3~~~------------------------------------------------------------------ e|-5---5------------------------------------------------------------------------- Solo (not whole, I managed to transcribe this so far, until 2nd guitar comes in...) It's best to use wah-wah pedal for this. E|------------------------------------------------------------------------------- B|-----------------------------------------------------------/12-11h12p11-------- G|----------/9-8---------------------/9~~~-12p11h12p11h12p11--------------12----- D|-7-9~~--9------10-9h10p9h10p9h10p9--------------------------------------------- A|------------------------------------------------------------------------------- e|------------------------------------------------------------------------------- E|--------------12-11------------------------------------/12--------------------- B|--------------------12-11h12p11----------------------------12-13-14-15-16------ G|-11h12p11h12--------------------12-11h12p11h12--8-9~~-------------------------- D|------------------------------------------------------------------------------- A|------------------------------------------------------------------------------- e|------------------------------------------------------------------------------- here enters 2nd guitar... E|-12~--14-15-16-15-11~~~-------------------------------------------------------- B|------------------------------------------------------------------------------- G|------------------------------------------------------------------------------- D|------------------------------------------------------------------------------- A|------------------------------------------------------------------------------- e|------------------------------------------------------------------------------- Branislav Stojkovic








О сайтеАккордыХит-парадПоискУроки ФорумыИщу песню
ПрограммыСвежачок-сПодпискаСтатьи
Яндекс.Метрика