Табулатура Deep Purple | Sometimes I Fell Like Screaming гитара табулатуры уроки тексты песен Deep Purple текст lyrics песня аккорды песни ноты нота электрогитара струна  
   А Б В Г Д Е Ж З И К Л М Н О П Р С Т У Ф Х Ч Ш Ы Э Ю Я       Разные песни
1-9 A B C D E F G H I J K L M N O P Q R S T U V W Y Z      Все исполнители

    



группа Deep Purple, Табулатура песни Sometimes I Fell Like Screaming

Группа: Deep Purple - другие аккорды (86),   о группе (2 статей),   диски (24),   фотографии (10)
Табулатура песни: Sometimes I Fell Like Screaming
Просмотров: 1659
Прислал: Pilgrim (pilgrim@akkords.ru)




    
Sometimes I Feel Like Screaming
(Gillan/Glover/Morse/Lord/Paice)
From "Purpendicular", 1996
solo- and intro-chords:    d   Bb   C   a   Bb   C   G
verse:    d   d   d4   d   a   C
          d   d   d4   d   a

chorus:    F   Bb   F   C   Ab   Db   Ab   Eb   (power-chords with full
                                                 distortion) 
                                               
first solo:
E :------12-13-----------|----------------------|
B :---10-----------10----|---13/17-13-----------|
G :-------------------12-|----------------12-10-|
D :12--------------------|----------------------|
A :----------------------|----------------------|
E :----------------------|----------------------|

E :------------------------|-------------10-12-|------12-13------------|
B :------------------------|----------10-------|---10------------10----|
G :----14-12----9/10-9-----|-------------------|--------------10----12-|
D :--------------------12~-|-------------------|12---------------------|
A :------------------------|-------------------|-----------------------|
E :------------------------|-------------------|-----------------------|

E :-------------------------|----------------------|----------------|
B :-----13/17-13------------|----------------13-15~|~~~-------------|
G :-------------------12-10-|-----14-12----------0-|----------------|
D :--14------------14-------|--12---------14-------|----------------|
A :-------------------------|----------------------|----------------|
E :-------------------------|----------------------|----------------|

second solo:

E :------12-13-----------|----------------------|
B :---10-----------10----|---13/17-13-----------|
G :-------------------12-|----------------12-10-|
D :12--------------------|----------------------|

Продолжаем грести бабос на ботах в Telegram.
Только в этот раз есть вариант автоматизировать это дело, привлекая рефералов. Вы можете заработать если »

A :----------------------|----------------------| E :----------------------|----------------------| E :------------------------|----------------------| B :------------------------|-------13-12----15-12-| G :----14-12----9/10-9-----|----12-------12-------| D :--------------------12~-|----------------------| A :------------------------|----------------------| E :------------------------|----------------------| E :------12-13------------|-------------------------| B :---10------------10----|-----13/17-13------------| G :--------------10----12-|-------------------12-10-| D :12---------------------|--14------------14-------| A :-----------------------|-------------------------| E :-----------------------|-------------------------| E :--------------------------|-------------------| B :-----13/1513----17/1817-|15~~~--------------| G :--------------------------|-0-----------------| D :--12----------------------|-------------------| A :--------------------------|-------------------| E :--------------------------|-------------------| main solo: E :-------------------------------|----------------------| B :-------------------------------|----------------------| G :-----------------10--/12--/12--|10~------------9/10---| D :-------10-10h12----------------|-----------12---------| A :10h12--------------------------|----------------------| E :-------------------------------|----------------------| E :-------------------|-----------------------|--------------------| B :-------------------|-----------------------|--------------------| G :9~------------7p5--|/7-/7------------------|---------------7








О сайтеАккордыХит-парадПоискУроки ФорумыИщу песню
ПрограммыСвежачок-сПодпискаСтатьи
Яндекс.Метрика