Табулатура Deep Purple | No No No гитара табулатуры уроки тексты песен Deep Purple текст lyrics песня аккорды песни ноты нота электрогитара струна  
   А Б В Г Д Е Ж З И К Л М Н О П Р С Т У Ф Х Ч Ш Ы Э Ю Я       Разные песни
1-9 A B C D E F G H I J K L M N O P Q R S T U V W Y Z      Все исполнители

    



группа Deep Purple, Табулатура песни No No No

Группа: Deep Purple - другие аккорды (86),   о группе (2 статей),   диски (24),   фотографии (10)
Табулатура песни: No No No
Просмотров: 2983
Прислал: Pilgrim (pilgrim@akkords.ru)




    
Okey... I think this is the right way to play the intro, 
so here it is:
       No No No - Deep Purple
     From the album: "Fireball" 
 (Blackmore/Gillan/Lord/Glover/Paice)
 e-------------------------------------
 B-------------------------------------
 G------------------2------------------
 D-----x-------3h4-----0---------------
 A--------5h7-------------3p0----------
 E--5--------------------------3-------
 e-------------------------------------
 B-------------------------------------
 G----------------5--------------------
 D-----x-------5-----7h5-----5--7------ 
 A--------5h7-------------7------------
 E--5----------------------------------
 

Продолжаем грести бабос на ботах в Telegram.
Только в этот раз есть вариант автоматизировать это дело, привлекая рефералов. Вы можете заработать если »

e------------------------------------- B------------------------------------- G------------------2------------------ D-----x-------3h4-----0--------------- A--------5h7-------------3p0---------- E--5--------------------------3------- e------------------------------------- B------------------------------------- G------------------------------------- D------------------------------------- A-----5h7p5h7p5h7h5p7-etc.------------ E--5-------------------------8-------- Okey. Thatґs it. If you have any comments or something else to say, mail to sampo.riikonen@jippii.fi








О сайтеАккордыХит-парадПоискУроки ФорумыИщу песню
ПрограммыСвежачок-сПодпискаСтатьи
Яндекс.Метрика