Табулатура Deep Purple | Never Before гитара табулатуры уроки тексты песен Deep Purple текст lyrics песня аккорды песни ноты нота электрогитара струна  
   А Б В Г Д Е Ж З И К Л М Н О П Р С Т У Ф Х Ч Ш Ы Э Ю Я       Разные песни
1-9 A B C D E F G H I J K L M N O P Q R S T U V W Y Z      Все исполнители

    



группа Deep Purple, Табулатура песни Never Before

Группа: Deep Purple - другие аккорды (86),   о группе (2 статей),   диски (24),   фотографии (10)
Табулатура песни: Never Before
Просмотров: 2097
Прислал: Pilgrim (pilgrim@akkords.ru)




    
Never Before
(Deep Purple)
From "Machine Head", 1972
INTRO
drums lead in!  play in 4th position (lots of stretches!)
VERSE
                                                    
(1,2,3 repeat verse)
                                                     
    (4 to chorus)
    D  E             D  E            (D)      (A)    
   (E)
E|----------------|----------------|--------------------|----------------|
B|----------------|----------------|--------------------|----------------|
G|----------------|----------------|--------------------|----------------|
D|--7--9----9--9--|--7--9----9--9--|----4-7-------7-7---|----------------|
A|--5--7----7--7--|--5--7----7--7--|--5------4-7------5-|--7-------------|
E|----------------|----------------|--------------------|----4---5--7----|
    Somebody        Somebody          Come to my side
    I'm tired       I'm crying        I'm sick inside

CHORUS
(B bluesy shuffle thingy)         D  A/C# G/B  A
G-G6... A-A6...
Help me now, please my friend, I  ne-ver  felt so bad
be-fore
                                      (1st chorus: to
verse)
                                      (2nd chorus: to
bridge)
                                      (3rd chorus: to
ending)
G G6....        A
never bever be- fore                            
              |-------------|------|---------------|
              |-------------|------|---------------|
              |-------------|------|---------------|
              |-7------7-5--|-(5)--|-----7------5--|
              |-7--4-7------|------|-5-7---5--7----|

Продолжаем грести бабос на ботах в Telegram.
Только в этот раз есть вариант автоматизировать это дело, привлекая рефералов. Вы можете заработать если »

|-5-----------|------|---------------| BRIDGE C F Ab C I was hurt when I was younger by a woman who was cold C F Ab C She took my name She took my body Then she threw away my soul |-----------|-----| |-----------|-----| |-----------|-----| |-----------|-----| |--7-5-3-1--|-----| |-----------|--4--| SOLO (in Bm... modal is good!) 16 bars then back to verse ENDING 3 x verse then: E (drums here) D E |-------------|-----|---------| |-------------|-----|---------| |-------------|-----|---------| |--9----------|-----|-7--9-9-9| |--7----------|-----|-5--7-7-7| |-------------|-----|---------| Tabbed by: David Thatcher








О сайтеАккордыХит-парадПоискУроки ФорумыИщу песню
ПрограммыСвежачок-сПодпискаСтатьи
Яндекс.Метрика