Табулатура Deep Purple | Knocking At Your Back Door гитара табулатуры уроки тексты песен Deep Purple текст lyrics песня аккорды песни ноты нота электрогитара струна  
   А Б В Г Д Е Ж З И К Л М Н О П Р С Т У Ф Х Ч Ш Ы Э Ю Я       Разные песни
1-9 A B C D E F G H I J K L M N O P Q R S T U V W Y Z      Все исполнители

    



группа Deep Purple, Табулатура песни Knocking At Your Back Door

Группа: Deep Purple - другие аккорды (86),   о группе (2 статей),   диски (24),   фотографии (10)
Табулатура песни: Knocking At Your Back Door
Просмотров: 2013
Прислал: Pilgrim (pilgrim@akkords.ru)




    
Knocking At Your Back Door
(Blackmore/Gillan/Glover/)
From "Perfect Strangers", 1984
Riff 1 (intro):
E--------------------------------------------------------------------------
B--------------------------------------------------------------------------
G--7--6--9--7--6--2--4--2--0--4--2--2h4-----------------------------
D--7--7--9--7--7--2--4--2--0--4--2--2h4-----------------------------x 2
A--------------------------------------------------------------------------
E---------------------------------------------------------------------------
Riff 2 :
E--------------------------------------------------------------------------
B--------------------------------------------------------------------------
G--------------------------7-----------------------------------------------
D--------9-------------7----------------7---------------------------------
A-----9------------5-----------------7------------------------------------
E---7------------------------------5---------------------------------------
    "Sweet.."      "But ..."        "Because she was........"
E---------------------------------------
B---------------------------------------
G---------------------------------------
D----------5----------------7----------x 4
A------5-------------------------------
E---3----------5----5-5---------------

Pre-Chorus Riff:
E-------------------------------3------------------------------------
B-------------------------------3------------------------------------
G--------------------------------------------------------------------
D-------------------------------------------------------------------

Продолжаем грести бабос на ботах в Telegram.
Только в этот раз есть вариант автоматизировать это дело, привлекая рефералов. Вы можете заработать если »

A------------------------------------------------------------------ E----5h7-----9-------3----------3----------------------------------- "i can't deny it" E-------------------------------------------------------------------- B------------------------------------------------------------------- G------------------------------------------------------------------- D----------------------------------7-------------------------------- A---------------5-----7----9-----0--------------------------------- E------------------------------------------------------------------- "with that smile on her face" E-------------------------------------------------------------------- B------------------------------------------------------------------- G------------0------------------------------------------ D---------0--------------------------------------------- A------2------------------------------------------------ E----3--------------------------0------------------------ "it's not the kill" E----------------------------------------------------------------- B---------------------------------------------------------------- G---------------------------------------------------------------- D-------------------------------7--------------------------------- A-------------5-----7---9-----0-------------------------------------- E----------------------------------------------------------------- "It's the thrill of the chase" Chorus with Riff 1 Antуnio Martins Ferreira








О сайтеАккордыХит-парадПоискУроки ФорумыИщу песню
ПрограммыСвежачок-сПодпискаСтатьи
Яндекс.Метрика