Табулатура Deep Purple | Gypsy Kiss  (2) гитара табулатуры уроки тексты песен Deep Purple текст lyrics песня аккорды песни ноты нота электрогитара струна  
   А Б В Г Д Е Ж З И К Л М Н О П Р С Т У Ф Х Ч Ш Ы Э Ю Я       Разные песни
1-9 A B C D E F G H I J K L M N O P Q R S T U V W Y Z      Все исполнители

    



группа Deep Purple, Табулатура песни Gypsy Kiss (2)

Группа: Deep Purple - другие аккорды (86),   о группе (2 статей),   диски (24),   фотографии (10)
Табулатура песни: Gypsy Kiss (2)
Просмотров: 1674
Прислал: Pilgrim (pilgrim@akkords.ru)




    
Gypsy's Kiss
(Blackmore/Gillan/Glover)
From "Perfect Strangers", 1984
|--------------------------|-----------------------|-------------------------|
|--------------------------|-----------------------|-------------------------|
|*-------------------------|-----------------------|-------------------------|
|*-------------------------|-----------------------|----------------------5--|
|--------1-----1--3-----5--|------3-----1--3-------|-------1-----1--3--------|
|---3-------3--------3-----|---------3--------3----|--3-------3--------3-----|

------------------------|-------------------------|-----------------------|
------------------------|-------------------------|-----------------------|
------------------------|-------------------------|-----------------------|
------3-----------------|-------------------------|-----------------------|
---------5--3--5--3--1--|-------1-----1--3-----5--|------3-----1--3--1----|

Продолжаем грести бабос на ботах в Telegram.
Только в этот раз есть вариант автоматизировать это дело, привлекая рефералов. Вы можете заработать если »

------------------------|--3-------3--------3-----|---------3-------------| 99x ---------------------|---------------------|-------|| ---------------------|---------------------|-------|| ---------------------|----5------8----7----|------*|| ----------------5----|---------------------|------*|| --3------6-----------|---------------------|-------|| ---------------------|---------------------|-------|| Zoran Dimitrijevic








О сайтеАккордыХит-парадПоискУроки ФорумыИщу песню
ПрограммыСвежачок-сПодпискаСтатьи
Яндекс.Метрика