Табулатура System Of A Down | The Metro гитара табулатуры уроки тексты песен System Of A Down текст lyrics песня аккорды песни ноты нота электрогитара струна  
   А Б В Г Д Е Ж З И К Л М Н О П Р С Т У Ф Х Ч Ш Ы Э Ю Я       Разные песни
1-9 A B C D E F G H I J K L M N O P Q R S T U V W Y Z      Все исполнители in english

    



группа System Of A Down, Табулатура песни The Metro

Группа: System Of A Down - другие аккорды (73),   диски (8),   фотографии (22)
Табулатура песни: The Metro
Просмотров: 2027
Прислал: Зиц (volodia_pur@mail.ru)




    
System of a Down - Metro

Intro 
--------------------------
--------------------------
----X--X--X--X--X--X------
----X--X--X--X--X--X------
----X--X--X--X--X--X------
----X--X--X--X--X--X------
----X--X--X--X--X--X------
----X--X--X--X--X--X------
----------------------------X-X-X-X-X-X
-15-15-15-15-15-15-15-15-15-X-X-X-X-X-X
----------------------------
----------------------------
----------------------------
----------------------------
-8------------------8---------------------
---8-9-6-8-4-6-3-1----8-9-9-6-8-4-6-3-1^--
------------------------------------------
------------------------------------------
------------------------------------------
------------------------------------------
Chorus
--------------------
--------------------
--------------------
8-8-8-8-10-10-10-10-
8-8-8-8-10-10-10-10-
6-6-6-6-8--8--8--8--
----------------
----------------
--------8-8-8-8-
6-6-6-6-8-8-8-8-
6-6-6-6-6-6-6-6-
4-4-4-4---------
---------------------
---------------------
---------------------
8-8-8-8-10-10-10-10---6---6---6---6-6
8-8-8-8-10-10-10-10---6---6---6---6-6
6-6-6-6-8--8--8--8----4---4---4---4-4
Verse repeat through verse 2
-----8-----

Продолжаем грести бабос на ботах в Telegram.
Только в этот раз есть вариант автоматизировать это дело, привлекая рефералов. Вы можете заработать если »

-----8----- ----------- ----------- ----------- ----------- Chorus 2x Bridge ------------------- ------------------- --6---6---6---6-6-- --6---6---6---6-6-- --4---4---4---4-4-- solo. repeat 2x -8---------------8--------------8-----15-13-10-11- ---8-9-6-8-9-------8-9-6-8-9------8--------------- -------------------------------------------------- -------------------------------------------------- -------------------------------------------------- -------------------------------------------------- -8----8`---------------8`----------------8`-----15-13-10-11- --8-----8`-9`-6`-8`-9`---8`-9`-6`-8`-9`----8`--------------- ---------------------------------------- ---------------------------------------- ---------------------------------------- ---------------------------------------- ----------------------------------- -13-12-11-10-13-12-11-10----------- ----------------------------------- ----------------------------------- ----------------------------------- ----------------------------------- part after chorus (also bass line for verse) <1>----------------------- <2>----------------------- <3>-----------------------(Ending) <4>----------------------- <5>----------------------- <6>---3-4-6-3-6-6-3-4-3-------3-3-4-4-3-3-6-6-3-3-3-3 <7>-3---------------------3-3------------------------

www.mxtabs.net
Дримлаш купить
дримлаш купить
drmlsh.ru







О сайтеАккордыХит-парадПоискУроки ФорумыИщу песню
ПрограммыСвежачок-сПодпискаСтатьи
Яндекс.Метрика