Басовая табулатура System Of A Down | Soil гитара табулатуры уроки тексты песен System Of A Down текст lyrics песня аккорды песни ноты нота электрогитара струна  
   А Б В Г Д Е Ж З И К Л М Н О П Р С Т У Ф Х Ч Ш Ы Э Ю Я       Разные песни
1-9 A B C D E F G H I J K L M N O P Q R S T U V W Y Z      Все исполнители in english

    



группа System Of A Down, Басовая табулатура песни Soil

Группа: System Of A Down - другие аккорды (73),   диски (8),   фотографии (22)
Басовая табулатура песни: Soil
Просмотров: 1660
Прислал: Зиц (volodia_pur@mail.ru)




    
Band: System Of A Down
Album: System Of A Down
Song: Soil
h = hammer-on
p = pull-off
r = let note ring
^ = bend
Song starts with guitar part.
Bass comes in at 3-4 seconds.
F|--------------------
C|--------------------
G|-8888888888888888/--
C|--------------------
Rhythm for this song is insane.
The part is;
F|----------------
C|----------------
G|----------------
C|-3-1-0--33-1-0-- x8
The below part has odd rhythm.
The first 3 of each part alternates.
It comes in fast, then slow, then fast, etc.
F|----------------
C|----------------
G|----------------
C|-3-1-0--33-1-0-- x16
F|------------
C|------------
G|-----3-5-5--
C|-0-0--------
F|------------------------------------
C|------------------------------------
G|------------------------------------
C|-3-1-0--333-1-0----3-1-0--3333-1-3-- x4
Then
F|-------------------------------------------------
C|---66666666----88888888----99999999----66666666--
G|-------------------------------------------------
C|-0----------0-----------0-----------0------------ 
Back to;
F|----------------
C|----------------
G|----------------
C|-3-1-0--33-1-0-- x16
F|------------
C|------------
G|-----3-5-5--
C|-0-0--------
F|------------------------------------
C|------------------------------------

Продолжаем грести бабос на ботах в Telegram.
Только в этот раз есть вариант автоматизировать это дело, привлекая рефералов. Вы можете заработать если »

G|------------------------------------ C|-3-1-0--333-1-0----3-1-0--3333-1-3-- x4 Then into the break; F|------------------------------- C|------------------------------- G|------------------------------- C|-0-0----0-0----0-0----0-0-0-0-- x3 F|-------------------------------------- C|-------------------------------------- G|-------------------------------------- C|-0-0-0-0-0-0-0-0-0-0-0-0-0-0-0-0-0-0-- F|---------------- C|---------------- G|-5----1--------- C|-----------3---- x4 F|------------------------------------------------------ C|------------------------------------------------------ G|----5-5---5-5---5-5---5-5---1-1---1-1----------------- C|-0-0---0-0---0-0---0-0---0-0---0-0---0-0-3-3-0-0-3-3-- Back to; F|------------------------------- C|------------------------------- G|------------------------------- C|-0-0----0-0----0-0----0-0-0-0-- Then you play; F|----------------------- C|----------------------- G|----------------------- C|-0-12-12--12-12-12-12-- x3 F|--------------------- C|--------------------- G|--------------------- C|-0-7-8-10-12-10-8-7-- F|------------- C|------------- G|------------- C|-12-12-7h10-- x7 F|---------- C|---------- G|---------- C|-12-12-7-- Serj shouts, then it comes in as; F|---------------- C|---------------- G|---------------- C|-3-1-0--33-1-0-- x8 Song ends.

www.mxtabs.net







О сайтеАккордыХит-парадПоискУроки ФорумыИщу песню
ПрограммыСвежачок-сПодпискаСтатьи
Яндекс.Метрика