Басовая табулатура System Of A Down | Spiders гитара табулатуры уроки тексты песен System Of A Down текст lyrics песня аккорды песни ноты нота электрогитара струна  
   А Б В Г Д Е Ж З И К Л М Н О П Р С Т У Ф Х Ч Ш Ы Э Ю Я       Разные песни
1-9 A B C D E F G H I J K L M N O P Q R S T U V W Y Z      Все исполнители in english

    



группа System Of A Down, Басовая табулатура песни Spiders

Группа: System Of A Down - другие аккорды (73),   диски (8),   фотографии (22)
Басовая табулатура песни: Spiders
Просмотров: 2152
Прислал: Зиц (volodia_pur@mail.ru)




    
Artist: System of a Down
Song: Spiders
Album: System of a Down
Artist: Shavo Odadjian
Enjoy.
Intro:   
 --9-9-7-7-7---9-9-7-7-7---10-9-12-10-9/10-9-9-7-7-7----
 -0-0-0-0-0-0-0-0-0-0-0-0-0--0-0--0--0----0-0-0-0-0-----
 -------------------------------------------------------
 -------------------------------------------------------
Verse 1:  (play twice)
"the piercing radiant moon..." 
 ---9-9-7-7-7--9-9-7-7-7--10-9-12-10-9/10-9-9-7-7-7--
 -0--0-0-0-0-0--0-0-0-0-0---0-0--0--0----0-0-0-0-0---
 ----------------------------------------------------
 --0----------0----------0---------------------------
Chorus Riff 1: (play once)
"through my head..." 
 ---------------------------------------------
 ---------------------------------------------
 3-3-3-3-3-3-3-3-3-3-3-3-3-3-3-3-3-3-3-3-3-3-- 
 ---------------------------------------------
Chorus Riff 2: (play once)
 -10-9-12-10-9/10-9-9-7-7-7-----------
 ---0-0--0--0----0-0-0-0-0------------
 -------------------------------------
 ------------------------------------- 
Chorus Riff 3: (play once)
"Before you know, awake..."
 -------------------------------------------
 -------------------------------------------
 -------------------------------------------
 -3-3-3-3-3-3-3-3-1-1-1-1-0-0-0-0-----------
Verse 2: (play once)
"Your lives are open wide..."
 --9-9-7-7-7---9-9-7-7-7---9-9-7-7-7--9-9-7-7-7--10-9-12-10-9/10-9-9-7-7-7--
 ---0-0-0-0-0-0-0-0-0-0-0-0-0-0-0-0-0--0-0-0-0-0---0-0--0--0----0-0-0-0-0---
 ---------------------------------------------------------------------------
 ------------------------------------0----------0---------------------------
 ---9-9-7-7-7--9-9-7-7-7--10-9-12-10-9/10-9-9-7-7-7--
 -0--0-0-0-0-0--0-0-0-0-0---0-0--0--0----0-0-0-0-0---

Продолжаем грести бабос на ботах в Telegram.
Только в этот раз есть вариант автоматизировать это дело, привлекая рефералов. Вы можете заработать если »

---------------------------------------------------- --0----------0----------0--------------------------- Chorus 2: Play Chorus Riff 1 Play Chorus Riff 2 Play Chorus Riff 3 Guitar Solo Riff 1 (play twice) --------------------------------------------------------------- --------------------------------------------------------------- -5-5-5-5-5-5-5-5-5-5-5-5-5-5-5-5-6-6-6-6-6-6-6-9-9-9-9-9-9-9-9- --------------------------------------------------------------- Solo Riff 2 (play twice) ----------------------------------------------------------------- ----------------------------------------------------------------- ----------------------------------------------------------------- -0-0-0-0-0-0-0-0-0-0-0-0-0-0-0-0-1-1-1-1-1-1-1-1-4-4-4-4-4-4-4-4- Chorus 3: Chorus Riff 1 Chorus Riff 2 Chorus Riff 3 Chorus Riff 2 Chorus Riff 3 Verse 3: --9-9-7-7-7---9-9-7-7-7---9-9-7-7-7---9-9-7-7-7----- ---0-0-0-0-0-0-0-0-0-0-0-0-0-0-0-0-0-0-0-0-0-0-0-0-- ---------------------------------------------------- ---------------------------------------------------- -10-9-12-10-9/10-9-9-7-7-7---10-9-12-10-9/10-9-9-7-7-7--- ---0-0--0--0----0-0-0-0-0-0-0--0-0--0-------0-0-0-0-0---- --------------------------------------------------------- ---------------------------------------------------------

www.mxtabs.net







О сайтеАккордыХит-парадПоискУроки ФорумыИщу песню
ПрограммыСвежачок-сПодпискаСтатьи
Яндекс.Метрика