Табулатура System Of A Down | Suggestions  (3) гитара табулатуры уроки тексты песен System Of A Down текст lyrics песня аккорды песни ноты нота электрогитара струна  
   А Б В Г Д Е Ж З И К Л М Н О П Р С Т У Ф Х Ч Ш Ы Э Ю Я       Разные песни
1-9 A B C D E F G H I J K L M N O P Q R S T U V W Y Z      Все исполнители in english

    



группа System Of A Down, Табулатура песни Suggestions (3)

Группа: System Of A Down - другие аккорды (73),   диски (8),   фотографии (22)
Табулатура песни: Suggestions (3)
Просмотров: 1717
Прислал: Зиц (volodia_pur@mail.ru)




    
Song: Suggestions	
 Author: System of a down
Drop D and down a step (CGCFAD)
Intro: (Acoustic Guitar)
repeat a few times and then do the change
|----------------------------------------------------------------|
|---------------0---------------0--------------------------------|
|-----------16----16---------16---16-----------------------------|
|-------14-----------------15------------------------------------|
|----------------------------------------------------------------|
|----------------------------------------------------------------|

Verse (light distortion) very fast
|----------------------------------------------------------------|
|----------------------------------------------------------------|
|----------------------------------------------------------------|
|--------9-----9------9----9-----------9-----9-----9---9---------|
|-----7-----0------7----0-----------8-----0-----8----0-----------|
|----------------------------------------------------------------|

Chorus
(distortion)
|----------------------------------------------------------------|
|----------------------------------------------------------------|
|----------------------------------------------------------------|
|--2-2-2-2-2-2-----3-3-3-3-3-3-----------------------------------|
|--2-2-2-2-2-2-----3-3-3-3-3-3-----------------------------------|
|--2-2-2-2-2-2-----3-3-3-3-3-3-----------------------------------|
Bridge
(distortion) 
|----------------------------------------------------------------|
|----------------------------------------------------------------|
|------8-8-8-//11-11-11------------------------------------------|

Продолжаем грести бабос на ботах в Telegram.
Только в этот раз есть вариант автоматизировать это дело, привлекая рефералов. Вы можете заработать если »

|------x-x-x-//-x--x--x------------------------------------------| |------6-6-6-//-9--9--9------------------------------------------| |----------------------------------------------------------------| then do again the intro but complete it with this |------------0---------------------------------------------------| |------------5---------------------------------------------------| |------------0---------------------------------------------------| |----------------------------------------------------------------| |----------------------------------------------------------------| |----------------------------------------------------------------| |----------------------------------------------------------------| |----------------------------------------------------------------| |----------------------------------------------------------------| |--2-2-2-2-2-2-----3-3-3-3-3-3-----------------------------------| |--2-2-2-2-2-2-----3-3-3-3-3-3-----------------------------------| |--2-2-2-2-2-2-----3-3-3-3-3-3-----------------------------------| |----------------------------------------------------------------| |----------------------------------------------------------------| |----------------------------------------------------------------| |-------------------------(9)---------------------(10)-----------| |----7-7-7-7-7-7-7-7-7-7-7-7--8-8-8-8-8-8-8-8-8-8-8-8------------| |----------------------------------------------------------------| |----------------------------------------------------------------| |----------------------------------------------------------------| |----------------------------------------------------------------| |-------------------------(9)----10-10-10------------------------| |----7-7-7-7-7-7-7-7-7-7-7-7--8-8-8-8-8-8------------------------| |----------------------------------------------------------------|

www.mxtabs.net







О сайтеАккордыХит-парадПоискУроки ФорумыИщу песню
ПрограммыСвежачок-сПодпискаСтатьи
Яндекс.Метрика