Табулатура System Of A Down | Ego Brain гитара табулатуры уроки тексты песен System Of A Down текст lyrics песня аккорды песни ноты нота электрогитара струна  
   А Б В Г Д Е Ж З И К Л М Н О П Р С Т У Ф Х Ч Ш Ы Э Ю Я       Разные песни
1-9 A B C D E F G H I J K L M N O P Q R S T U V W Y Z      Все исполнители in english

    



группа System Of A Down, Табулатура песни Ego Brain

Группа: System Of A Down - другие аккорды (73),   диски (8),   фотографии (22)
Табулатура песни: Ego Brain
Просмотров: 3186
Прислал: Зиц (volodia_pur@mail.ru)




    
Song: Ego Brain
Band: System Of A Down
Album: Steal This Album
Intro/Verse (clean)
D|--------------------------------------------------
A|-------8------------------------8-----------------
F|-----9---9--------------------9---9---------------
C|---9-------9-----9-----9----9-------9-----9-----9-
G|-7-------------7-----7----7-------------7-----7---
C|-------------7-----7------------------7-----7-----
D|-------------------------------------------------------
A|-------8-----------------------------------------------
F|-----9---9---------------------12-------12-------------
C|---9-------9-----9-----9----12-------12--------5-----7-
G|-7-------------7-----7---10-------10---------5-----7---
C|-------------7-----7-----------------------5-----7-----
Chorus (distortion)
(you can figure out strumming pattern)
D|------------------------------------------
A|------------------------------------------
F|------------------------------------------
C|-9-7-3--2--3--2---2-----------2-----------
G|-9-7-3--2--3--2---2-7-3-2h3h2-2-7-3-2h3h2-

Продолжаем грести бабос на ботах в Telegram.
Только в этот раз есть вариант автоматизировать это дело, привлекая рефералов. Вы можете заработать если »

C|-9-7-3--2--3--2---2-----------2----------- D|-------------------------------------------------------- A|-------------------------------------------------------- F|-------------------------------------------------------- C|-3-5--5-3-7-5-3-2h3h2-----------2-----------2----------- G|-3--------------------7-3-2h3h2-2-7-3-2h3h2-2-7-3-2h3h2- C|-3------------------------------2-----------2----------- D|---------------------- A|---------------------- F|---------------------- C|-3-5--5-3-7-5-3-2h3h2- then you play G|-3-------------------- the verse again C|-3-------------------- Outro Just play the intro/verse, and end on: D|--- A|-8- F|-9- C|-9- G|-7- C|---

www.mxtabs.net







О сайтеАккордыХит-парадПоискУроки ФорумыИщу песню
ПрограммыСвежачок-сПодпискаСтатьи
Яндекс.Метрика