Аккорды System Of A Down | Pictures гитара табулатуры уроки тексты песен System Of A Down текст lyrics песня аккорды песни ноты нота электрогитара струна  
   А Б В Г Д Е Ж З И К Л М Н О П Р С Т У Ф Х Ч Ш Ы Э Ю Я       Разные песни
1-9 A B C D E F G H I J K L M N O P Q R S T U V W Y Z      Все исполнители in english

    



группа System Of A Down, Аккорды песни Pictures

Группа: System Of A Down - другие аккорды (73),   диски (8),   фотографии (22)
Аккорды песни: Pictures
Просмотров: 2444
Прислал: Зиц (volodia_pur@mail.ru)




    
Song: "Pictures"
Artist: System of A Down
Album: Steal This Album
Tuning: Drop D, Down 1 Step (C,G,C,F,A,D)
INTRO:
|------------------|
|------------------|
|------------------|
|-1-0-1-3--1-0-1-3-|
|-1-0-1-3--1-0-1-3-|
|-1-0-1-3--1-0-1-3-|
INTRO 2:
|----------------------------------|
|----------------------------------|
|----------------------------------|
|-1-0-1-3----------1-0-1-3---------|
|-1-0-1-3-4-331-3--1-0-1-3-6-443-4-|
|-1-0-1-3-4-331-3--1-0-1-3-6-443-4-|
pm        . ... .          . ... .
VERSE:
|----------------------------------------------------------------|
|----------------------------------------------------------------|
|----------------------------------------------------------------|
|-7-7-7-7-7-7-7-------------------7-7-7-7-7-7-7------------------|
|-5-5-5-5-5-5-5--1-0-1-3-4-331-3--5-5-5-5-5-5-5--1-0-1-3-6-443-4-|
|----------------1-0-1-3-4-331-3-----------------1-0-1-3-6-443-4-|
pm                       . ... .                         . ... .
|---------------------------------------------------------------|
|---------------------------------------------------------------|
|---------------------------------------------------------------|
|-7-7-7-7-7-7-7-------------------7-7-7-7-7-7-7---7-7-7-7-7-7-7-|
|-5-5-5-5-5-5-5--1-0-1-3-4-331-3--5-5-5-5-5-5-5---5-5-5-5-5-5-5-|
|----------------1-0-1-3-4-331-3--------------------------------|
pm                       . ... .
|-------------------------------|
|-------------------------------|

Продолжаем грести бабос на ботах в Telegram.
Только в этот раз есть вариант автоматизировать это дело, привлекая рефералов. Вы можете заработать если »

|---------------------7-7-7-7-7-| |-7-7-7-7-7-7-7---7-7-7-7-7-7-7-| |-5-5-5-5-5-5-5---5-5-5-5-5-5-5-| |-------------------------------| BRIDGE: |---------------------------| |---------------------------| |-7--12-11--15-14--12-11--8-| |-X---X--X---X--X---X--X--X-| |-5--10--9--13-12--10--9--6-| |---------------------------| BRIDGE 2: |----------------------------------------| |----------------------------------------| |----------------------------------------| |-1-0--5-4--8-7--5-4--1-0--5-4--8-7--5-4-| |-1-0--5-4--8-7--5-4--1-0--5-4--8-7--5-4-| |-1-0--5-4--8-7--5-4--1-0--5-4--8-7--5-4-| BRIDGE 3: (palm mute) |-----------------------------------------------------------------| |-----------------------------------------------------------------| |-----------------------------------------------------------------| |-----------------------------------------------------------------| |-1-1-0-0-0-0-0-0-5-5-4-4-4-4-4-4-8-8-7-7-7-7-7-7-5-5-4-4-4-4-4-4-| |-1-1-0-0-0-0-0-0-5-5-4-4-4-4-4-4-8-8-7-7-7-7-7-7-5-5-4-4-4-4-4-4-| OUTRO: |-----------------------------------| |-----------------------------------| |-7--12-11--15-14--12-7-7-7-7-7-7-7-| |-X---X--X---X--X---X-7-7-7-7-7-7-7-| |-5--10--9--13-12--10-5-5-5-5-5-5-5-| |-----------------------------------|

www.mxtabs.net







О сайтеАккордыХит-парадПоискУроки ФорумыИщу песню
ПрограммыСвежачок-сПодпискаСтатьи
Яндекс.Метрика