Аккорды System Of A Down | I-e-a-i-a-i-o гитара табулатуры уроки тексты песен System Of A Down текст lyrics песня аккорды песни ноты нота электрогитара струна  
   А Б В Г Д Е Ж З И К Л М Н О П Р С Т У Ф Х Ч Ш Ы Э Ю Я       Разные песни
1-9 A B C D E F G H I J K L M N O P Q R S T U V W Y Z      Все исполнители in english

    



группа System Of A Down, Аккорды песни I-e-a-i-a-i-o

Группа: System Of A Down - другие аккорды (73),   диски (8),   фотографии (22)
Аккорды песни: I-e-a-i-a-i-o
Просмотров: 2825
Подобрал: Зиц (volodia_pur@mail.ru)




    
I-E-A-I-A-I-O
System of a down
A
1:-16----13^16----13^16----13^16----13^16----13^16----|
2:----15-------15-------15-------15-------15-------15-|
3:----------------------------------------------------|
4:----------------------------------------------------|
5:----------------------------------------------------|
6:----------------------------------------------------|
1:-16----13^16----13^16----13^16----13^16----13^16-|
2:----15-------15-------15-------15-------15-------|
3:-------------------------------------------------|
4:-------------------------------------------------|
5:-------------------------------------------------|
6:-------------------------------------------------|
1:16----13^16----13^16----13^16----13^|16----13^16----13^16----13^16----13^|
2:---15-------15-------15-------15----|---15-------15-------15-------15----|
3:------------------------------------|------------------------------------|
4:------------------------------------|------------------------------------|
5:------------------------------------|------------------------------------|
6:------------------------------------|------------------------------------|
1:16----13^16----13^16----13^16----13^|16----13^16----13^16-|
2:---15-------15-------15-------15----|---15-------15-------|
3:------------------------------------|---------------------|
4:------------------------------------|---------------------|
5:------------------------------------|---------------------|
6:------------------------------------|---------------------|

B
1:----------------|
2:----------------|
3:----------------|
4:-1^0--0--1^0--0-|
5:-1^0--0--1^0--0-|
6:-1^0--0--1^0--0-|

C
7x:                 1x:
pm............................
1:-----------------|------------|
2:-----------------|------------|
3:-----------------|------------|
4:-1-0-0-0-0-0-0-0-|-1-0-0-0-0--|
5:-1-0-0-0-0-0-0-0-|-1-0-0-0-0--|
6:-1-0-0-0-0-0-0-0-|-1-0-0-0-0--|

D
4x:
1:------------------|
2:------------------|
3:-7-5-7-5----------|
4:------------------|
5:----------5-3-5-3-|
6:------------------|

D'
4x:
1:--------------------|
2:--------------------|
3:-10-9-10-9----------|
4:--------------------|
5:------------8-7-8-7-|

Продолжаем грести бабос на ботах в Telegram.
Только в этот раз есть вариант автоматизировать это дело, привлекая рефералов. Вы можете заработать если »

6:--------------------| E pm.............................................................. 1:---------------------------------|------------------------------| 2:---------------------------------|------------------------------| 3:---------------------------------|------------------------------| 4:---------------------------------|------------------------------| 5:---------------------------------|------------------------------| 6:-0-0-0-0-0-0-3-3-2-2-0-0-0-0-0-0-|-5-5-5-5-5-5-3-3-2-2-0--0--0--| pm....................................................... 1:-----------------------------|--------------------------| 2:-----------------------------|--------------------------| 3:-----------------------------|--------------------------| 4:-----------------------------|--------------------------| 5:-----------------------------|--------------------------| 6:-0-0-0-0-3-3-2-2-0-0-0-0-0-0-|-5-5-5-5-5-5-3-3-2-2-0--0-| F pm......................... .......................... 1:------------------------------|------------------------------| 2:------------------------------|------------------------------| 3:------------------------------|------------------------------| 4:-3----------------------------|-5----------------------------| 5:-3----------------------------|-5----------------------------| 6:-3--0-0-0-0--0-0-0-0--0-0-0-0-|-5--0-0-0-0--0-0-0-0--0-0-0-0-| pm......................... .......................... 1:------------------------------|------------------------------| 2:------------------------------|------------------------------| 3:------------------------------|------------------------------| 4:-3----------------------------|-5----------------------------| 5:-3----------------------------|-5----------------------------| 6:-3--0-0-0-0--0-0-0-0--0-0-0-0-|-5--0-0-0-0--0-0-0-0--0-0-0-0-| G pm.... .. Pm...... 1:------------------------------------------------| 2:--------10----10-11-10---------------10--8------| 3:-7--8-7----------------7----7--8-7-7------------| 4:----------------------------------------------0-| 5:------------------------------------------------| 6:------------------------------------------------| pm.... .. Pm...... 1:------------------------------------------------------------------| 2:--------10----10-11-10---------------10--11---11-11-11-11-11b..13-| 3:-7--8-7----------------7----7--8-7-7------------------------------| 4:------------------------------------------------------------------| 5:------------------------------------------------------------------| 6:------------------------------------------------------------------| I 2x: 1:--------------------------| 2:--------------------------| 3:--------------------------| 4:-0---3-2--0----5---3-2--0-| 5:-0---3-2--0----5---3-2--0-| 6:-0---3-2--0----5---3-2--0-|

www.mxtabs.net







О сайтеАккордыХит-парадПоискУроки ФорумыИщу песню
ПрограммыСвежачок-сПодпискаСтатьи
Яндекс.Метрика