Табулатура System Of A Down | A.d.d. гитара табулатуры уроки тексты песен System Of A Down текст lyrics песня аккорды песни ноты нота электрогитара струна  
   А Б В Г Д Е Ж З И К Л М Н О П Р С Т У Ф Х Ч Ш Ы Э Ю Я       Разные песни
1-9 A B C D E F G H I J K L M N O P Q R S T U V W Y Z      Все исполнители in english

    



группа System Of A Down, Табулатура песни A.d.d.

Группа: System Of A Down - другие аккорды (73),   диски (8),   фотографии (22)
Табулатура песни: A.d.d.
Просмотров: 3147
Прислал: Зиц (volodia_pur@mail.ru)




    
Song: "A.D.D."
Artist: System of A Down
Album: Steal This Album
Tuning: Drop D, Down 1 Step (C,G,C,F,A,D)
INTRO:
|----------------------------------------------------------|
|-15-15151515-15-15^-1515-15-1515-15151515-15-15^-15151515-|
|----------------------------------------------------------|
|----------------------------------------------------------|
|----------------------------------------------------------|
|----------------------------------------------------------|
|-------------------------------------------------------|
|-15-15^-15151515-15-15^-1515-15-15-15^-15151515-15-15^-|
|-------------------------------------------------------|
|-------------------------------------------------------|
|-------------------------------------------------------|
|-------------------------------------------------------|
INTRO 2:
|-----------------------------------------------|
|-----------------------------------------------|
|-----------------------------------------------|
|-----------------------------------------------|
|-12-0000-0-12-0000-0-12-0000-0-12-000-10-12-13-|
|-12-0000-0-12-0000-0-12-0000-0-12-000-10-12-13-|
INTRO 3:
|-----------------------------------------------|
|-----------------------------------------------|
|-----------------------------------------------|
|-----------------------------------------------|
|-12-0000-0-12-0000-0-12-0000-0-12-000-10-12-13-|
|-12-0000-0-12-0000-0-12-0000-0-12-000-10-12-13-|
pm   ...       ...       ...       ...
CHORUS:
|------------------------------------------------------------|
|------------------------------------------------------------|
|------------------------------------------------------------|
|-1--1-111-7--7-777-0--0-000-6--6-666-11--11-111111-5--5-555-|
|-1--1-111-7--7-777-0--0-000-6--6-666-11--11-111111-5--5-555-|
|-1--1-111-7--7-777-0--0-000-6--6-666-11--11-111111-5--5-555-|
FILL:
|-----------------|
|-----------------|
|-----------------|
|-----------------|
|-0-0-0-0-0-0-0-0-|
|-0-0-0-0-0-0-0-0-|
VERSE:
|---------------------------------------------------|
|---------------------------------------------------|
|-1010101010101010101010101010101010999999999999999-|
|--X-X-X-X-X-X-X-X-X-X-X-X-X-X-X-X-XXXXXXXXXXXXXXXX-|
|--8-8-8-8-8-8-8-8-8-8-8-8-8-8-8-8-8777777777777777-|
|--0-0-0-0-0-0-0-0-0-0-0-0-0-0-0-0-0000000000000000-|
|------------------------------------------------------------------|
|------------------------------------------------------------------|

Продолжаем грести бабос на ботах в Telegram.
Только в этот раз есть вариант автоматизировать это дело, привлекая рефералов. Вы можете заработать если »

|-1212121212121212121212121212121212101010101010101010101010101010-| |--X-X-X-X-X-X-X-X-X-X-X-X-X-X-X-X-X-X-X-X-X-X-X-X-X-X-X-X-X-X-X-X-| |-1010101010101010101010101010101010-8-8-8-8-8-8-8-8-8-8-8-8-8-8-8-| |--0-0-0-0-0-0-0-0-0-0-0-0-0-0-0-0-0-0-0-0-0-0-0-0-0-0-0-0-0-0-0-0-| |------------------------------------------------------------------| |------------------------------------------------------------------| |-1414141414141414141414141414141414121212121212121212121212121212-| |--X-X-X-X-X-X-X-X-X-X-X-X-X-X-X-X-X-X-X-X-X-X-X-X-X-X-X-X-X-X-X-X-| |-1212121212121212121212121212121212101010101010101010101010101010-| |--0-0-0-0-0-0-0-0-0-0-0-0-0-0-0-0-0-0-0-0-0-0-0-0-0-0-0-0-0-0-0-0-| |------------------------------------------------------------------| |------------------------------------------------------------------| |-1515151515151515151515151515151515141414141414141414141414141414-| |--X-X-X-X-X-X-X-X-X-X-X-X-X-X-X-X-X-X-X-X-X-X-X-X-X-X-X-X-X-X-X-X-| |-1313131313131313131313131313131313121212121212121212121212121212-| |--0-0-0-0-0-0-0-0-0-0-0-0-0-0-0-0-0-0-0-0-0-0-0-0-0-0-0-0-0-0-0-0-| BRIDGE: (guitar 1) (^(n) - bend 1/2 and release) |-----------------------------------------------------------------| |---------15^(15)---------15^(15)---------15^(15)---------15^(15)-| |-----------------------------------------------------------------| |-12-1212---------12-1212---------12-1212---------12-1212---------| |-----------------------------------------------------------------| |-----------------------------------------------------------------| |-----------------------------------------------------| |---------15^(15)---------15^(15)-15-151515-15-151515-| |----------------------------------X--X-X-X--X--X-X-X-| |-12-1212---------12-1212---------12-121212-12-121212-| |-----------------------------------------------------| |-----------------------------------------------------| BRIDGE: (guitar 2) (palm mute) |------------| |------------| |------------| |------------| |-0--0-0-0-0-| |-0--0-0-0-0-| CHORUS B: |---------------------| |---------------------| |-----------<7>-------| |-<7>-----------------| |-----0-0-0-----0-0-0-| |-----0-0-0-----0-0-0-| pm . . . . . . FILL 2: |---------| |---------| |-----<7>-| |-<7>-----| |---------| |---------|

www.mxtabs.net







О сайтеАккордыХит-парадПоискУроки ФорумыИщу песню
ПрограммыСвежачок-сПодпискаСтатьи
Яндекс.Метрика