Табулатура System Of A Down | Nuguns гитара табулатуры уроки тексты песен System Of A Down текст lyrics песня аккорды песни ноты нота электрогитара струна  
   А Б В Г Д Е Ж З И К Л М Н О П Р С Т У Ф Х Ч Ш Ы Э Ю Я       Разные песни
1-9 A B C D E F G H I J K L M N O P Q R S T U V W Y Z      Все исполнители in english

    



группа System Of A Down, Табулатура песни Nuguns

Группа: System Of A Down - другие аккорды (73),   диски (8),   фотографии (22)
Табулатура песни: Nuguns
Просмотров: 1668
Прислал: Зиц (volodia_pur@mail.ru)




    
Song: "Nuguns"
Artist: System of A Down
Album: Steal This Album
Tuning: Drop D, Down 1 Step (C,G,C,F,A,D)
INTRO:
|----------|
|----------|
|----------|
|-7-8-10-8-|
|-7-8-10-8-|
|-7-8-10-8-|
CHORUS: (^ - bend 1/2 step)
|----------------------------------------------------------|
|----------------------------------------------------------|
|----------------------------------------------------------|
|----------------------------------------------------------|
|----------------------------------------------------------|
|-7-0-0-0-8-0-0-0-10-0-0-0-8^--7-0-0-0-8-0-0-0-10-0-0-0-8^-|
pm. . . . . . . . .. . . .     . . . . . . . . .. . . .
|---------------------------------------|
|---------------------------------------|
|---------------------------------------|
|------------------------------7-8-10-8-|
|------------------------------7-8-10-8-|
|-7-0-0-0-8-0-0-0-10-0-0-0-8^--7-8-10-8-|
pm. . . . . . . . .. . . .
|----------------------------------------------------------|
|----------------------------------------------------------|
|----------------------------------------------------------|
|----------------------------------------------------------|
|----------------------------------------------------------|
|-7p0-8p0-10p0-8p0-7p0-8p0-10--7p0-8p0-10p0-8p0-7p0-8p0-10-|
|--------------------------------------------|
|--------------------------------------------|
|--------------------------------------------|
|-----------------------------------7-8-10-8-|
|-----------------------------------7-8-10-8-|
|-7p0-8p0-10p0-8p0-7p0-8p0-10p0-8p0-7-8-10-8-|
FILL:
|----------------------|
|----------------------|
|-7---7---<7>---<7>----|
|---7---7----<7>---<7>-|
|----------------------|
|----------------------|
VERSE: (palm mute) (w/ random harmonics)
|--------------------------------------------------------------------|
|--------------------------------------------------------------------|
|--------7-77---7-77-----7-77---7-77-----7-77---7-77-----7-77---7-77-|
|--------------------------------------------------------------------|
|-55-6-6------6------6-6------6------6-6------6------6-6------6------|
|--------------------------------------------------------------------|
pm       . ..   . ..     . ..   . ..     . ..   . ..     . ..   . ..
|------------------------------------------------------------------|
|------------------------------------------------------------------|
|-------------<7>-------------<7>------7-77---7-77-----7-77---7-77-|
|-----<7>-------------<7>------------------------------------------|
|-0-0-----0-0-----0-0-----0-0------6-6------6------6-6------6------|
|-0-0-----0-0-----0-0-----0-0--------------------------------------|
pm. .     . .     . .     . .          . ..   . ..     . ..   . ..
|----------------------------------------------------|
|----------------------------------------------------|
|-----7-77---7-77-----7-77---7--7---7---<7>---<7>----|
|---------------------------------7---7----<7>---<7>-|
|-6-6------6------6-6------6-------------------------|
|----------------------------------------------------|
pm    . ..   . ..     . ..   .
INTERLUDE:
|-----------------|
|-----------------|
|-----------------|

Продолжаем грести бабос на ботах в Telegram.
Только в этот раз есть вариант автоматизировать это дело, привлекая рефералов. Вы можете заработать если »

|-----------------| |-00-0-7/-00-0-7-| |-00-0-7/-00-0-7-| INTERLUDE FILL: |----------| |----------| |----------| |----------| |----------| |-7-8-10-8-| SOLO: (guitar 1) (^ - bend 1/4 step) |-----------------------------------------------------------| |-----------------------------------------------------------| |-7(trem)--8(trem)--7----7^---------------------------------| |---------------------10-----10-8-10^--8-7-8^--7----7(trem)-| |------------------------------------------------10---------| |-----------------------------------------------------------| |--------------------------------------------------------------------| |-----------------------------10(trem)---13--11-10-10h11p10-10h11p10-| |--------------------------------------------------------------------| |-10^--8-7-8^--7---------7-------------------------------------------| |----------------10-9-10---10----------------------------------------| |--------------------------------------------------------------------| |---------------------------------------------------------------| |-13-11-10-10h11p10-10h11p10--10(trem)---13--11-10-11--10-------| |---------------------------------------------------------12-11-| |---------------------------------------------------------------| |---------------------------------------------------------------| |---------------------------------------------------------------| SOLO: (guitar 2) |-11-11-11-12-14-12-11-12-11----11----------------------| |----------------------------14----14-12-14-12-11-12-11-| |-------------------------------------------------------| |-------------------------------------------------------| |-------------------------------------------------------| |-------------------------------------------------------| |-----------------------------------------------------| |-----------------------------------------------------| |-14-141414-141414-141414-141414-141414-141414-141414-| |-----------------------------------------------------| |-----------------------------------------------------| |-----------------------------------------------------| |------------------------------------------------------| |------------------------------------------------------| |15h17p15-15h17p15-15h17p15-15h17p15-15h17p15-15h17p15-| |------------------------------------------------------| |------------------------------------------------------| |------------------------------------------------------| |-------------------------------------------------------------| |-------------------15-15-15-15-15-15-15-15h16-18-16-15-16-15-| |-15h17p15-15h17p15-14-14-14-14-14-14-14-14-------------------| |-------------------------------------------------------------| |-------------------------------------------------------------| |-------------------------------------------------------------| |----------------------| |----------------------| |-17-15-13-12-13-15-13-| |----------------------| |----------------------| |----------------------| FILL 2: |-10(trem)-| |----------| |----------| |----------| |----------| |----------|

www.mxtabs.net







О сайтеАккордыХит-парадПоискУроки ФорумыИщу песню
ПрограммыСвежачок-сПодпискаСтатьи
Яндекс.Метрика