Табулатура System Of A Down | Bubbles гитара табулатуры уроки тексты песен System Of A Down текст lyrics песня аккорды песни ноты нота электрогитара струна  
   А Б В Г Д Е Ж З И К Л М Н О П Р С Т У Ф Х Ч Ш Ы Э Ю Я       Разные песни
1-9 A B C D E F G H I J K L M N O P Q R S T U V W Y Z      Все исполнители in english

    



группа System Of A Down, Табулатура песни Bubbles

Группа: System Of A Down - другие аккорды (73),   диски (8),   фотографии (22)
Табулатура песни: Bubbles
Просмотров: 3029
Прислал: Зиц (volodia_pur@mail.ru)




    

Song: "Bubbles"
Artist: System of A Down
Album: Steal This Album

Tuning: Drop D, Down 1 Step (C,G,C,F,A,D)
INTRO: (palm mute)
|---------|
|---------|
|---------|
|-6-6-6-6-|
|-6-6-6-6-|
|-6-6-6-6-|
CHORUS:
|----------------------------------------------------------|
|----------------------------------------------------------|
|----------------------------------------------------------|
|-3-5--5-3-5--5-3-5--5-3-5--5-3-5--5-3-5--5-3-5--5-6-6-6-6-|
|-3-5--5-3-5--5-3-5--5-3-5--5-3-5--5-3-5--5-3-5--5-6-6-6-6-|
|-3-5--5-3-5--5-3-5--5-3-5--5-3-5--5-3-5--5-3-5--5-6-6-6-6-|
pm                                                 . . . .
CHORUS B: (palm mute)
|------------------------------|
|------------------------------|
|------------------------------|
|-3-5--5-3--5--3-5--5--6-6-6-6-|
|-3-5--5-3--5--3-5--5--6-6-6-6-|
|-3-5--5-3--5--3-5--5--6-6-6-6-|
VERSE:
|-----------------------------------|
|--------------------------66-------|
|-55778877554-4-4--55778877--887788-|
|-----------------------------------|

Продолжаем грести бабос на ботах в Telegram.
Только в этот раз есть вариант автоматизировать это дело, привлекая рефералов. Вы можете заработать если »

|-----------------------------------| |-----------------------------------| CHORUS C: |------------------------------| |------------------------------| |------------------------------| |------------------------------| |-3-5--5-3--5--3-5--5--6-6-6-6-| |-3-5--5-3--5--3-5--5--6-6-6-6-| FILL: |---| |---| |---| |---| |-5-| |-5-| INTERLUDE: |------------------------| |------------------------| |------------------------| |------------------------| |-3-/8-5-6-5--3-/8-5-6-5-| |-3-/8-5-6-5--3-/8-5-6-5-| INTERLUDE FILL: |------------------| |---------66-------| |-55778877--887788-| |------------------| |------------------| |------------------|

www.mxtabs.net







О сайтеАккордыХит-парадПоискУроки ФорумыИщу песню
ПрограммыСвежачок-сПодпискаСтатьи
Яндекс.Метрика