Табулатура Deep Purple | Fools гитара табулатуры уроки тексты песен Deep Purple текст lyrics песня аккорды песни ноты нота электрогитара струна  
   А Б В Г Д Е Ж З И К Л М Н О П Р С Т У Ф Х Ч Ш Ы Э Ю Я       Разные песни
1-9 A B C D E F G H I J K L M N O P Q R S T U V W Y Z      Все исполнители

    



группа Deep Purple, Табулатура песни Fools

Группа: Deep Purple - другие аккорды (86),   о группе (2 статей),   диски (24),   фотографии (10)
Табулатура песни: Fools
Просмотров: 2076
Прислал: Pilgrim (pilgrim@akkords.ru)




    
Fools
(Blackmore/Gillan/Glover/Lord/Paice)
From "Fireball", 1971
intro 1:
e|------------------------------------------------------------------
B|------------------------------------------------------------------
G|------------------------------------------------------------------
D|-------------------------------------------------4-2--------------
A|----------------74--2/4------74--------------------4------------
E|--4/7--4/7--4/7-----------4/7------74--2/4-74---------4/7-------

intro 2 (fingerpick):
e|---------------                -------
B|---------------                ---0---
G|--------4------    adding some -4---4- unisono variations
D|-----4-----4---                -------
A|--2------------                -------
E|---------------                -------
   (troughout)

I'm crying --   I'm dying

verse 1:

Продолжаем грести бабос на ботах в Telegram.
Только в этот раз есть вариант автоматизировать это дело, привлекая рефералов. Вы можете заработать если »

e|------------------------------------------- --------- B|------------------------------------------- --------- G|------------------------------------------- last one --------- D|------7/9---7/9---7---------7/9---7-------- ending with --------- A|--9---5/7---5/7---5-9---9---5/7---5-7-9--- --7------ E|--7-----------------7---7-----------5-7--- --5------ I can see what's wrong with me -- It's in my head I can see what's gonna be -- As I lie in my bed Man is not my brotherhood -- I am of the dead e|------------------------------------------------------------------- B|---------------------------------------------------------------5--- G|--------------------------------------------------------------(7)b9 D|---------------------------7--------------------------------------- A|-----------------------------7--5-4-5-4h5p4------------------------ E|--5-4-5-6-7-8-9-10-7--7h10------------------5-7--10-10-9-9








О сайтеАккордыХит-парадПоискУроки ФорумыИщу песню
ПрограммыСвежачок-сПодпискаСтатьи
Яндекс.Метрика